PrimaNota.ru - самый крупный в мире бесплатный архив песенных текстов, аккордов, табулатур и нот


Дебюсси Клод - Golliwogg's Cake Walk - таба, видео

Регистрация Запомнить меня
Войти через:  Facebook Google Twitter Vk Yandex Mail.ru

Дебюсси Клод - Golliwogg's Cake Walk - таба, видео

Печатать
Просмотров: 199
Уроки эстрадного вокала в Санкт-Петербурге


this song is written inD Major in 2/4 time.
these may seem like simle bass tabs but they were 
written for a double bass in a chamber strings 
ensemble.it is quite a good song once you have all 
the violins and stuff.

* = dont dampen

Moderato

G|---------|----------|---------|----------|
D|---------|----------|---------|----------|
A|---------|----------|-----1---|------0---|
E|---------|----------|---------|----------|

Repeat 5 times
G|-------------------|-------------------|
D|---0--------0------|---0--------0------| 
A|-------------------|-------------------|
E|-------------------|-------------------|
  

G|-------------------|-------------------|
D|-------------------|-------------------| 
A|---0---------------|---2---0---2---4---|
E|-------------------|-------------------|


G|-------------------|-------------------|
D|---0--------0------|---0--------0------| 
A|-------------------|-------------------|
E|-------------------|-------------------|


G|-------------------|-------------------|
D|---0--------0------|---0--------0------| 
A|-------------------|-------------------|
E|-------------------|-------------------|


G|-------------------|-------------------|
D|---2--------2------|---2--------2------| 
A|-------------------|-------------------|
E|-------------------|-------------------|


G|-------------------|-------------------|
D|---2--------2------|-------------------| 
A|-------------------|---0---------------|
E|-------------------|-------------------|
                         *

G|---------|----------|---------|----------|
D|---------|----------|---------|----------|
A|---------|----------|---------|----------|
E|---------|----------|---------|----------|


G|-------------------|-------------------|
D|-------------------|-------------------| 
A|--02--3-----2---0--|--02--3-----2---0--|
E|-------------------|-------------------|


G|-------------------|-------------------|
D|-------------------|-------------------| 
A|--02--3-----2---0--|-----023----2---0--|
E|-------------------|-------------------|

repeat twice
G|---2---------2-----|----2--------------|
D|-------------------|-------------------| 
A|-------------------|-------------------|
E|-------------------|-------------------|


G|--2------|--2-------|---------|----------|
D|---------|----------|---------|----------|
A|---------|----------|-----1---|------0---|
E|---------|----------|---------|----------|
    *         *
repeat 3 times
G|-------------------|-------------------|
D|---0--------0------|---0--------0------| 
A|-------------------|-------------------|
E|-------------------|-------------------|


G|-------------------|-------------------|
D|-------------------|-------------------| 
A|---0---------------|---2---0---2---4---|
E|-------------------|-------------------|

play softer Repeat 3 times
G|-------------------|-------------------|
D|---0--------0------|---0---------------| 
A|-------------------|-------------------|
E|-------------------|-------------------|


G|------0-|--------|
D|--------|-0------|
A|--------|--------|
E|--------|--------|

Добавлено: 25.12.2013
Другие материалы по этой песне:

Страница создана 19.06.2012
http://primanota.ru/claude-debussy/golliwoggs-cake-walk-chords.htm
Привет, Гость.
Предлагаем пройти революционный курс по гитаре.
Подарок от PrimaNota.Ru, забирай!