PrimaNota.ru - самый крупный в мире бесплатный архив песенных текстов, аккордов, табулатур и нот


Дебюсси Клод - Девушка с льнеными волосами - аккорды и текст, видео

Регистрация Запомнить меня
Войти через:  Facebook Google Twitter Vk Yandex Mail.ru

Дебюсси Клод - Девушка с льнеными волосами - аккорды и текст, видео

Печатать
Просмотров: 176
Девушка с льнеными волосами
Дебюсси Клод
E||-10------7---------7-|-10---7---------7-----3p0-|-3---2-0---|
B||-----------8-----8---|--------8-----8---8---1---|-0-------3-|
G||-------------9-------|----------9-----------0---|-0---------|
D||---------------------|----------------------2---|-0---------|
A||---------------------|----------------------3---|-----------|
E||---------------------|--------------------------|-3---------|
 
E|--------------|-5----------10---7-----7-|-----10---7------12-|
B|--------------|-7-----------7---8---8---|-10-------7-------9-|
G|----------H12-|-7-----------7---9---9---|-11-------8-------9-|
D|--------------|-0------------------10---|-12-------9-------9-|
A|-------H7-----|-----------------7-------|--------------------|
E|--------------|-------------7-----------|-10-------7-------0-|

E|-------8-|-10-------7----0-----7-|-10---7----0-----7-----3p0-|
B|-12------|--0---------8------8---|--0-----8------8---8---1---|
G|---------|--0------------0-------|--0--------0-------7---2---|
D|---------|--------------11-------|----------11-------9---0---|
A|---------|--8-----------12-------|--8-------12-------7-------|
E|---------|-----------------------|---------------------------|

E|-3---2-0-----------------|-------------------------|
B|-0-------3---------1-0---|---------------------0-3-|
G|-0---------------------2-|-0-----------------------|
D|-0-----------------------|-----4-2-0---------------|
A|-------------------------|-------------------3-2-0-|
E|-3-----------------------|-------------------------|

E|-0--------8-----H12-----|------H12---------------|
B|-3---8s10---------------|-0--H7------------1-0---|
G|-2-----------H7------H5-|---------H7-----------2-|
D|-0----------------------|-0----------------------|
A|------------------------|------------------------|
E|-3----------------------|-3--------------3-------|

E|-------------------------|-----------------------5-|
B|-----0-------------------|---------------------6---|
G|-0h2-------2-0-----------|---------------2-5-7-----|
D|-2-----4-2-----0---4-2---|---0-------0-3-----------|
A|-3-----5-3-------3-----2-|-0---3-------------------|
E|-3-----5-3-----2-0-----3-|-1-------3---------------|

E|--8--------------------|-7---5---0---------------|
B|--8--12-10-8-----------|-5-----8-5-----------3-1-|
G|--9--------------------|-5-------5---------------|
D|-10--------------------|-5-------4---------------|
A|-----------------------|-0-------5---------------|
E|--8--------------------|-------------------------|

E|---------------------0---|-0-----------------0---|
B|-0-----------0---------2-|-0--------------0------|
G|-0---2-0-----2-----------|-1------------4-6----6-|
D|-2-------2---------------|--------2-4-6---7------|
A|-0---------------2-------|----2-4----------------|
E|-------------------------|-0---------------------|

E|-0-------0-2-4-7-9--12-9-|-12------------------12-|
B|-0---0-2-------0-0-------|--9-------------9-12----|
G|-1---------------6-------|--9--------9-11------12-|
D|-2-------2-4-6---7-------|--9---9-11--------------|
A|-----2-4---------0-------|------------------------|
E|-0-----------------------|--0-------------------8-|

E|-10h12p10--------5------3-2-0-|-0--------------------------5-|
B|----------H12----2------------|-1----3h5p3-0-------------8-7-|
G|-11-------H12----2------------|-0----------0-------------5---|
D|--0--------------2------------|-2----4-----2----7--------0---|
A|----------------------0-------|-3----5----------4------------|
E|----------H12-----------------|-----------------5------------|

E|-7-----3-0---3---7--10--|-7---3---0-------3------|
B|-5-----3-0---3---5---8--|-5---3---0-------1------|
G|-7-----0-0---0---7---9--|-7---0---0-------2------|
D|-5-----2-0---2---5---9--|-5---2-----------0------|
A|------------------------|---------3--------------|
E|------------------------|------------------------|

E|-----------------0---3-|-7---3---7--------------|
B|-0-------0---3---3---5-|-8---5---5-------3------|
G|-0-----0-0---4---0---4-|-7---4---5--------------|
D|-0-----2-0---2---------|---------5-------4------|
A|-------2---------------|---------0-------5------|
E|-3---------------------|------------------------|

E|-------------------|------------------------------|
B|-8-----------------|------------H12-----------H12-|
G|-------------------|---------------H12-----H12----|
D|------------H5-----|------------------H7----------|
A|-7-----------------|------------------------------|
E|-8-----------------|------------------------------|

E|----------------------------3p0-|-3-----2-----0-----|
B|-----H12----------H12-----------|-0-----------------|
G|--------H12----H12---H12--------|-0-----------------|
D|-H5--------H7-------------------|-2-----------------|
A|-----------------------0--------|-------------------|
E|--------------------------------|-0-----------------|

E|------------------|-------------------------|
B|-3-----------0----|-----0-------------------|
G|-4--------5-----2-|-0h2-------2-0-----------|
D|-5----------------|-2-----4-2-----0---4-2---|
A|-5----------------|-3-----5-3-------3-----2-|
E|-3----------------|-3-----5-3-----2-0-----3-|

E|-------------------------|-------------3-5-8-10-12-|
B|-------------------------|-----------5-3-5-8-10-13-|
G|-------------------------|---0-2-5-7-5-------------|
D|---0-2-----0-2-----0-2---|---0-2-5-7---------------|
A|-0-----2-3-----2-0-----2-|-3-----------------------|
E|-2-----3-5-----3-2-----3-|-5-----------------------|

E|-----A--------------|-------------------|---3-|
B|-----3---------------|--3----------------|-----|
G|----4----------------|-------------------|-----|
D|---5-----------------|-------------------|--5--|
A|--5------------------|-5-----------------|-----|
E|-3-------------------|-------------------|-3---|
Добавлено: 23.02.2014
Другие материалы по этой песне:
  • Аккорды и текст

Страница создана 23.02.2014
http://primanota.ru/claude-debussy/devushka-s-lnenymi-volosami-chords.htm
Привет, Гость.
Предлагаем пройти революционный курс по гитаре.
Подарок от PrimaNota.Ru, забирай!