PrimaNota.ru - самый крупный в мире бесплатный архив песенных текстов, аккордов, табулатур и нот


Дебюсси Клод - Clair De Lune - текст песни, таба, видео

Регистрация Запомнить меня
Войти через:  Facebook Google Twitter Vk Yandex Mail.ru

Дебюсси Клод - Clair De Lune - текст песни, таба, видео

Печатать
Просмотров: 339
Авторы музыки: Claude Debussy

E|----3----|15-------|12-------|---------|10-12-10-|----------12--|--------|
B|----5----|17-------|13-------|---------|X(12)----|--13-15-13--13|12h13p12|
G|0--------|---------|---------|---------|13-------|14------------|12------|
D|2--------|---------|---------|---------|15-------|--------------|--------|
A|---------|---------|---------|---------|---------|--------------|--------|
E|---------|---------|---------|---------|---------|--------------|--------|


|----------10--|-----------------------|------5--|----------------|--------|
|--10-12-10--10|8-10-8---6-8-6--5(ring)|-5-6-5--5|3-5-3----1-2-1--|0(ring)-|
|10(ring)------|9(ring)-7(ring)-6(ring)|5(ring)--|4(ring)-2(ring)-|0(ring)-|
|--------------|-----------------------|---------|----------------|--------|
|--------------|-----------------------|---------|----------------|--------|
|--------------|-----------------------|---------|----------------|--------|


|------------15--12|--10h12-10|-------15--12|--------------|
|------------------|----------|--13-15------|--15-17-15--13|
|----------12------|13(ring)--|12(ring)-----|13(ring)------|
|-----12/14--------|----------|-------------|--------------|
|---10-------------|----------|-------------|--------------|
|3/8---------------|----------|-------------|--------------|


|-------15--12|-----------------|
|--13-15------|--15-17-15---13--|
|14(ring)-----|15(ring)---------|
|-------------|-----------------|
|-------------|-----------------|
|-------------|-----------------|


|--(take your time and milk it)--------------------|
|-------17---15-15-15-13-13-13-12-12-12-13\10(ring)|
|--------------------------------------------------|
|0(ring.........)----------------------------------|
|--------------------------------------------------|
|--------------------------------------------------|


|--(again-take your time-soft and strong)----------|
|-------17---18-17-15-17-15-13-15-13-12-13---------|
|-----------------------------------------14(ring)-|
|0(ring.........)----------------------------------|
|--------------------------------------------------|
|--------------------------------------------------|


|-----7-5---|---------------|-----8-5-|--------------|-------10-----|
|--6-8---6--|---6--6-6-6-8-6|--6-8---6|--6--6-6-6-8-6|----------13--|
|0(ring)----|---7--7-7-7-7-7|---------|--7--7-7-7-7-7|--10-12-----10|
|-----------|6(ring)--------|7(ring)--|9(ring)-------|10(ring)------|
|-----------|---------------|---------|--------------|--------------|
|-----------|---------------|---------|--------------|--------------|

                          TAKE YOUR SWEET TIME ON THE REST OF THIS
|-----------------|-------15------------|15----------------|15-----------|
|--10--10-10-12-10|13-15--13------------|13----------------|13-----------|
|--10--10-10-10-10|-------12------------|12----------------|12-----------|
|12(short ring)---|-------14------------|13----------------|12-----------|
|-----------------|----(rolled and)-----|-(rolled)---------|--(rolled)---|
|-----------------|---(sustained chords)|--(RING ALL)------|--(RING ALL)-|


|--------------------------15(ring and fade all)-|
|----------------12(ring)------------------------|
|----------10(ring)------------------------------|
|-----12(ring)-----------------------------------|      END of intro
|10(serious ring)--------------------------------|
|------------------------------------------------|




This was the first tab i have ever done. i hope it was easy to understand
 and i hope you liked it. i would highly suggest listening to a recording 
to help with putting emotion into your playing but i believe this is not 
the origional key so careful lol. i may try to add the rest later. ENJOY!!!
Добавлено: 13.06.2012
Другие материалы по этой песне:

Страница создана 16.03.2012
http://primanota.ru/claude-debussy/clair-de-lune-chords.htm
Привет, Гость.
Предлагаем пройти революционный курс по гитаре.
Подарок от PrimaNota.Ru, забирай!