PrimaNota.ru - самый крупный в мире бесплатный архив песенных текстов, аккордов, табулатур и нот


Дебюсси Клод - Arabesque - таба, видео

Регистрация Запомнить меня
Войти через:  Facebook Google Twitter Vk Yandex Mail.ru

Дебюсси Клод - Arabesque - таба, видео

Печатать
Просмотров: 304
Уроки эстрадного вокала в Санкт-Петербурге
Caude Debussy - Arabesque

So far just the intro and main theme.
This song ought to played by two guitars,
but I wrote the tab for one:
NOTE: (#)'s are ghost notes that would be played with bass or guitar,
or whatever.

4/4
Triplets

E|-----------12-14-16-11------------|---------------11-12---------------|---|
B|-----10-14-------------12---------|---------10-14-------12------------|---|
G|---9----------------------13------|------11----------------13---------|---|
D|11---------------------------13---|---11----------------------14------|---|
A|--------------------------------14|12----------------------------14-11|---|
E|----------------------------------------------------------------------|---|

E|-------9-------14-----9------|------9-------14-----17------|
B|------------10-------------10|-----------10------9------14-|
G|-----6---11---------9---11---|----7---11-------7-----14----|
D|---7--------------7----------|--7--------------------------|
A|-9------------(7)------------|6----------------------------|
E|-----------------------------|--------------(9)------------|

E|------(17)--------9-10-9--16---14----|
B|---------------10---------12---10----|
G|----------8-11-----------------------|
D|-----7-11----------------------------|
A|---9---------------------------------|
E|-7-----------------------------------|

Right hand piano
Triplets
E|------12-14----12----------------|----------------------------------|---|
B|------------14----12-14----12----|----------------------------------|---|
G|-q-rest-----------------13----11-|13----13--------------------------|---|
D|---------------------------------|---14----13---------------11------|---|
A|---------------------------------|----------------------------------|14-|
E|---------------------------------|----------------------------------|---|

Left hand Piano
Eighths
E|------------------------|-----------------------------|Repeat
B|------------0-----------|-------------------------|---|
G|---------1-----1--------|------------6------------|---|
D|------2-----------2-----|---------6-----6---------|---|
A|---2-----------------2--|---4--7-----------7---4--|---|
E|0-----------------------|0------------------------|0--|

Notice that left hand is playing eighths and right hand is playing triplets.
Добавлено: 27.07.2012
Другие материалы по этой песне:

Страница создана 10.04.2012
http://primanota.ru/claude-debussy/arabesque-chords.htm
Привет, Гость.
Предлагаем пройти революционный курс по гитаре.
Подарок от PrimaNota.Ru, забирай!