PrimaNota.ru - самый крупный в мире бесплатный архив песенных текстов, аккордов, табулатур и нот


Дебюсси Клод - 2-ая аребеска - аккорды и текст

Регистрация Запомнить меня
Войти через:  Facebook Google Twitter Vk Yandex Mail.ru

Дебюсси Клод - 2-ая аребеска - аккорды и текст

Печатать
Просмотров: 349
Уроки эстрадного вокала в Санкт-Петербурге
2-ая аребеска
Дебюсси Клод
обозначения:

h - хаммер
p - пулл
~ - вибратто

E|-------------17h19p17----------------17h19p17-----|
B|-17h19p17----------------17h19p17-----------------|
G|----------------------19----------------------19--|
D|----------19----------------------19--------------|
A|--------------------------------------------------|
E|--------------------------------------------------|

E|-------------19h20p19----------------19h20p19-----|
B|-17h19p17----------------17h19p17-----------------|
G|----------------------19----------------------19--|
D|----------21----------------------21--------------|
A|--------------------------------------------------|
E|--------------------------------------------------|

E|-------------20h22p20----------------20h22p20---|
B|-17h19p17----------------17h19p17---------------|
G|----------17----------19----------17----------19|
D|------------------------------------------------|
A|------------------------------------------------|
E|------------------------------------------------|

E|-------------------------------------------------|
B|-17h19p17----15h17p15----12h13p12----10h12p10----|
G|-------------------------------------------------|
D|----------21----------17----------12----------14-|
A|-------------------------------------------------|
E|-------------------------------------------------|

E|-15h17p15--------------------------14-15h17p15----|
B|----------17--13-------------12h16-------------17-|
G|-----------------12-------------------------------|
D|--------------------14p13-16----------------------|
A|--------------------------------------------------|
E|--------------------------------------------------|

E|-------------------------12h14p12-------------|-------------|
B|-13----------------15h19----------13----------|------12-15~-|
G|----12-------------------------------14-------|---13--------|
D|-------14----16h19----------------------14----|12-----------|
A|----------17-------------------------------15-|-------------|
E|----------------------------------------------|-------------|
Добавлено: 25.09.2013
Другие материалы по этой песне:
  • Аккорды и текст

Страница создана 25.09.2013
http://primanota.ru/claude-debussy/2-aya-arebeska-chords.htm
Привет, Гость.
Предлагаем пройти революционный курс по гитаре.
Подарок от PrimaNota.Ru, забирай!