PrimaNota.ru - самый крупный в мире бесплатный архив песенных текстов, аккордов, табулатур и нот


Clash - Protex Blue - текст песни, бас-таба, видео

Регистрация Запомнить меня
Войти через:  Facebook Google Twitter Vk Yandex Mail.ru

Clash - Protex Blue - текст песни, бас-таба, видео

Печатать
Просмотров: 193
Band: The Clash
Song: Protex Blue
Album: The Clash
Tuning: Standard(EADG)
Difficulty:Intermediate
Tabber:Jesper Nordberg
E-mail: the-stupid-bros@hotmail.com

Intro:

G---------------------------|I
D---------------------------|I
A---------------------------|I
E---------0--------------0--|I

Verse:

G--------------------------------|I
D--------------------------------|I
A-5-5-5-5-5-5-5-5-5-5-5-2-3-4-I--| 4x
E--------------------------------|I

Pre Chorus:

G--------0-0-2-2------------------|I
D----2-2---------------0-0-2-2----|I
A-3----------------2-2---------I--| 2x
E----------------3----------------|I

Chorus:

G------------------------------------------------0-0-2-2--|I
D--------------------------------------------2-2----------|I
A-2--2---3--3---2--2---3--5--3-3-3-3-3-3-3-3--------------|I
E---------------------------------------------------------|I
Play this a couple of times and after that it comes a guitar solo,and you ¨bass-mans¨ is 
going to play the pre-chorus.

Chorus again.

End with:

G-----I
D-----I
A---3-I
E-----I
Добавлено: 07.06.2012
Другие материалы по этой песне:

Страница создана 17.05.2012
http://primanota.ru/clash/protex-blue-chords.htm
Привет, Гость.
Предлагаем пройти революционный курс по гитаре.
Подарок от PrimaNota.Ru, забирай!