PrimaNota.ru - самый крупный в мире бесплатный архив песенных текстов, аккордов, табулатур и нот


Clash - Know Your Rights - аккорды и текст, таба, бас-таба, видео

Регистрация Запомнить меня
Войти через:  Facebook Google Twitter Vk Yandex Mail.ru

Clash - Know Your Rights - аккорды и текст, таба, бас-таба, видео

Печатать
Просмотров: 337
Уроки эстрадного вокала в Санкт-Петербурге
Know Your Rights
Clash
-------------------------------------------------------------------------------
                             Know your rights - The Clash
-------------------------------------------------------------------------------
Tabbed by:Chordmonkey
Tuning: standard


Intro/Riff
   Abm
e|-----4x4x4-----------4x4x4-----------4x4x4--------|
B|-----4x4x4-----------4x4x4-----------4x4x4--------|
G|-----4x4x4-----------4x4x4-----------4x4x4--------|
D|-----6x6x6-----------6x6x6-----------6x6x6--------|
A|-----6x6x6--6p4h6----6x6x6--6p4h6----6x6x6--------|
E|--4---------------4---------------4---------------|


                                                          B Bb Abm(riff)
   This is a public service announcement... with guitar!
   
   Know your rights. All three of them. Number one

Verse
   Abm (riff)
   You have the right not to be killed.
   Murder is a crime.
                 E    B Bb Abm(riff)       E           F#
   Unless it was done by a policeman or an aristocrat.
              Abm(riff)
   Know your rights. And number two

Verse 2
   You have the right to food money.
   Providing of course, you don't mind a little
                             E
   Investigation, humiliation.
                               B Bb Abm(riff)
   And if you cross your fingers, rehabilitation.

Chorus
        E           F#
   Know your rights.
         B  Bb   Abm(riff)
   These are your rights.

Bridge- same chords as verse.

Verse 3
   Abm(riff)
   You have the right to free speech.
   As long as you're not dumb enough to actually try it.

Chorus 2
   Know your rights.
   These are your rights.
   Know your rights.
   These are your rights.
   All three of 'em

Outro
   It has been suggested, in some quarters, that this is not enough.
   Well...
   Get off the streets
   Get off the streets


   Abm     B      Bb     E       F#
e|--4------7------6------0--------2------|
B|--4------7------6------0--------2------|
G|--4------8------7------1--------3------|
D|--6------9------8------2--------4------|
A|--6------9------8------2--------4------|
E|--4------7------6------0--------2------|
   
Добавлено: 02.05.2012
Другие материалы по этой песне:

Страница создана 23.02.2012
http://primanota.ru/clash/know-your-rights-chords.htm
Привет, Гость.
Предлагаем пройти революционный курс по гитаре.
Подарок от PrimaNota.Ru, забирай!