PrimaNota.ru - самый крупный в мире бесплатный архив песенных текстов, аккордов, табулатур и нот


Clash - Inoculated City - текст песни, таба, бас-таба, видео

Регистрация Запомнить меня
Войти через:  Facebook Google Twitter Vk Yandex Mail.ru

Clash - Inoculated City - текст песни, таба, бас-таба, видео

Печатать
Просмотров: 210
Artist: The Clash
Song: Inoculated City
Album: Combat Rock
Tuning: ½ step down

Guitar 1 Intro/Verse:
E------------------------------------------------------------------|
B------------------------------------------------------------------|
G------------------------------------------------------------------|
D-5-3-5-3-55—5-3-5-3-5-3-------------------------------------------|
A------------------------6-----------------------------------------|
E------------------------------------------------------------------|

Guitar 2 Intro/Chorus
E------------------------------------------------------------------|
B----------------------8-8-8-6-4-8-6-4-----------------------------|
G-6/7-6-4-2--------------------------------------------------------|
D-----------4-4-2-0------------------------------------------------|
A------------------------------------------------------------------|
E------------------------------------------------------------------|

Guitar 2 during the verse:
E------------------------------------------------------------------|
B-8-6-8-6-88-8-6-8-6-8-6-------------------------------------------|
G------------------------8-----------------------------------------|
D------------------------------------------------------------------|
A------------------------------------------------------------------|
E------------------------------------------------------------------|
Добавлено: 10.05.2012
Другие материалы по этой песне:
  • Аккорды и текст

Страница создана 07.04.2012
http://primanota.ru/clash/inoculated-city-chords.htm
Привет, Гость.
Предлагаем пройти революционный курс по гитаре.
Подарок от PrimaNota.Ru, забирай!