PrimaNota.ru - самый крупный в мире бесплатный архив песенных текстов, аккордов, табулатур и нот


Clash - Charlie Don - аккорды и текст, видео

Регистрация Запомнить меня
Войти через:  Facebook Google Twitter Vk Yandex Mail.ru

Clash - Charlie Don - аккорды и текст, видео

Печатать
Просмотров: 135
Уроки эстрадного вокала в Санкт-Петербурге
Charlie Don
Clash
RIFF:		[----------------------------------------9-10-7---------
-7-7-7-7--7--7-10-7---------7-7-7-7--7---------10-7----
--------------------9-7--------------------------------
-------------------------------------------------------
-------------------------------------------------------
-------------------------------------------------------

----------------------------------------10-9---7-------
-7-7-7-7--7--7-10-7---------7-7-7-7--7-------10--10--7-
--------------------9-7--------------------------------
-------------------------------------------------------
-------------------------------------------------------
-------------------------------------------------------]

CHORDS:		 D     Bm    Em7    F#m7
[-2------2-----3------5-------------------------------------
-3------3-----3------5-------------------------------------
-2------4-----4------6-------------------------------------
-0------4------------------------------------------------
-------------------------------------------------------
-------------------------------------------------------]

D                Bm
CHORUS:		Charlie don't surf and we think he should
D                Bm
Charlie don't surf and you know that it ain't no good
D                 Em7
Charlie don't surf for his hamburger Momma
F#m7
Charlie's gonna be a napalm star

RIFF (you can strum with a [x-x-0-4-0-2]? rather than the riff)

Everybody wants to rule the world
Must be something we get from birth
One truth is we never learn
Satelites will make space burn

D         Bm
We've been told to keep the strangers out
D         Bm
We don't like them starting to hang around
D         Em7
We don't like them over town
F#m7
Across the world we are going to mow them down

CHORUS

RIFF

The reign of the super powers must be over
So many armies can't free the earth
Soon the rock will roll over
Africa is choking on their Coca Cola

D                   Bm
It's a one a way street in a one horse town
D               Bm
One way people starting to bragg around
D              Em7
You can laugh, put them dowm
F#m7
These one way people gonna mow us down

CHORUS
Добавлено: 07.08.2013
Другие материалы по этой песне:
  • Аккорды и текст

Страница создана 07.08.2013
http://primanota.ru/clash/charlie-don-chords.htm
Привет, Гость.
Предлагаем пройти революционный курс по гитаре.
Подарок от PrimaNota.Ru, забирай!