PrimaNota.ru - самый крупный в мире бесплатный архив песенных текстов, аккордов, табулатур и нот


The Clash At Demonhead - Black Sheep - бас-таба, видео

Регистрация Запомнить меня
Войти через:  Facebook Google Twitter Vk Yandex Mail.ru

The Clash At Demonhead - Black Sheep - бас-таба, видео

Печатать
Просмотров: 291
-------------------------------------------------------------------------------
                             Black Sheep - Clash At Demonhead
-------------------------------------------------------------------------------
Tabbed by: Diego A.
E-mail: diegoaguilarmusica2@gmail.com

Tuning:

G|------------------------------|
D|------------------------------|   x4
A|-/-7-7-7-7--------------------|
E|--00000000--------------------|

Verse:

G----------------------------------------------------------------|
D----------------------------------------------------------------|
A----------------------------------------------------------------|
E---0---0---0---0---0---0---0---0---0---0---0---0---3-3-3-3------|x2

Hello again, friend of a friend, I knew you when
Our common goal was waiting for the world to end

G----------------------------------------------------------------|
D----------------------------------------------------------------|
A----------------------------------------------------------------|
E---0---0---0---0---0---0---0---0---0---0---0---0---3-3-3-3------|x2

Now that the truth is just a rule that you can bend
You crack the whip, shapeshifting trick, the past again

G----------------------------------------------------------------|
D----------------------------------------------------------------|
A---------------------------------------------------2-2-2-2------|
E---0---0---0---0---0---0---0---0---0---0---0---0----------------|x1

Chorus:

G----------------------------------------------------------------|
D----------------------------------------------------------------|
A--------------------------------7-7-7-7-7-7-7-7-5-5-5-5-5-5-5-5-|
E-3-3-3-3-3-3-3-3-7-7-7-7-7-7-7-7--------------------------------|x5
i'll send you my love on a wire
Lift you up, everytime, everyone, ooo, pulls away, ooo
From you

Verse 2:


G----------------------------------------------------------------------|
D---------------------------------------------------11/9-11/9----------|
A----------------------------------------------------------------------|
E---0---0---0---0---0---0---0---0---0---0---0---0---0---0---0---0------|x2


Lyrics:

Hello again, friend of a friend, I knew you when 
Our common goal was waiting for the world to end 
Now that the truth is just a rule that you can bend 
You crack the whip, shape-shift and trick the past again 

i'll send you my love on a wire 
Lift you up, everytime, everyone, ooo, pulls away, ooo 
From you

Got balls of steel, got an automobile, for a minimum wage 
Got real estate, I'm buying it all up in outerspace
Now that the truth is just a rule that you can bend 
You crack the whip, shape-shift and trick, the past again

I'll send you my love on a wire 
Lift you up, everytime, everyone, ooo, pulls a way, oo
Mechanical bull, the number one 
You'll take a ride from anyone, everyone wants a ride, pulls away, oooh from you 

ORDER: Intro
Verse
Chorus
Verse 2
Verse
Chorus(continue until the solo)
Solo(Play the chorus all the way till the end)


| /  slide up
| \  slide down
| h  hammer-on
| p  pull-off
| ~  vibrato
| +  harmonic
| x  Mute note
===============================================================================
Добавлено: 03.07.2015
Другие материалы по этой песне:
  • Аккорды и текст

Страница создана 03.07.2015
http://primanota.ru/clash-at-demonhead/black-sheep-chords.htm
Привет, Гость.
Предлагаем пройти революционный курс по гитаре.
Подарок от PrimaNota.Ru, забирай!