PrimaNota.ru - самый крупный в мире бесплатный архив песенных текстов, аккордов, табулатур и нот


Clarks - Snowman - текст песни, таба, видео

Регистрация Запомнить меня
Войти через:  Facebook Google Twitter Vk Yandex Mail.ru

Clarks - Snowman - текст песни, таба, видео

Печатать
Просмотров: 152
Snowman by The Clarks
Tuning:Standard


verse riff:
e----------------------|
B-----3-------3------3-|
G---0-----0h2------0---|
D----------------------|
A----------------------|
E-3--------------3-----|

intro riff:
e-----------------------------------------1--1--2-|
B----8--8-7------5------------------8--7--1--1--3-|
G----7--7-7---7--5-5-5p0--4p0--2p0--7--7--2--2--2-|
D-s9--------9-----------------------------3--3--0-|
A-----------------------------------------3--3--X-|
E-----------------------------------------1--0--X-|

Intro:
        G       D      Am   C
e-------3-------2--------------------------------------------------|
B---------------3-----------1--------------------------------------|
G---------------2------2-------------------------------------------|
D----------------------2----2--------------------------------------|
A-------2-------------------3----3-0-2-----------------------------|
E-------3------------------------------0---------------------------|


        G       D       F    C   D  D  D     G
e-------3-------2----------------2--2--2-----3---------------------|
B---------------3-------1----1---3--3--3---------------------------|
G---------------2-------2--------2--2--2---------------------------|
D-----------------------3----2-------------------------------------|
A-------2--------------------3---------------2---------------------|
E-------3------------------------------------3---------------------|

Verse:

       G          D       G
-------3----------2-------3---------------------------------------|
------------------3-----------------------------------------------|
------------------2-----------------------------------------------|
------------------------------------------------------------------|
-------2------------------2---------------------------------------|
-------3------------------3---------------------------------------|

intro: G D Am C
       G D F  C D G

1st verse: riff

G    D  G
Pick me up
         G   D    G
Are you holding, man
G   D    G
Up all night
G       D     G
Please don�t melt
Em/E  D   Am
Falling down
Em/E   D   C
Bump me up
C
Time to hit the town

CHORUS:
G, D, C
G, D, F, C, D

G     D         Am
God save the Snowman
C
His teeth are falling out,
G            D
His head is in the clouds
     F      F/E      D
His nose is on the ground
G     D         Am
God save the Snowman
C
His teeth are falling out
G            D
His head is in the clouds
     F      F/E       D
His nose is on the ground

verse2: riff

G    D  G
Jump my heart
            G  D   G
Because I'm coming down
E    D   Am
Save my life
E     D  C
Help him get
C                        (scratch)
The carrot from his mind

Chorus:

G     D         Am
God save the Snowman
C
His teeth are falling out,
G            D
His head is in the clouds
     F      F/E      D
His nose is on the ground
G     D         Am
God save the Snowman
C
His teeth are falling out,
G            D
His head is in the clouds
     F      F/E      D
His nose is on the ground

bridge:

Am                      D
Falling down, not being round
Am                            D
The flakes go up, not hit the ground
Am                      D
Falling down, not being round
Am                        D
Toast the day to winter's clown
Bm7
Wont need a broom to help him now.

verse3:riff

G   D  G
Get it up
      G      D G
Lord, I Wish I could
E   D  C
Get a life
E    D    C
Not this time
C                  (scratch)
Gotta hit the town

chorus:

G     D         Am
God save the Snowman
C
His teeth are falling out,
G            D
His head is in the clouds
     F      F/E      D
His nose is on the ground
G     D         Am
God save the Snowman
C
His teeth are falling out,
G            D
His head is in the clouds
     F      F/E      D
His nose is on the ground

ending:
G D Am C
Добавлено: 22.02.2012
Другие материалы по этой песне:
  • Аккорды и текст

Страница создана 22.02.2012
http://primanota.ru/clarks/snowman-chords.htm
Привет, Гость.
Предлагаем пройти революционный курс по гитаре.
Подарок от PrimaNota.Ru, забирай!