PrimaNota.ru - самый крупный в мире бесплатный архив песенных текстов, аккордов, табулатур и нот


Clarks - Help Me Out - текст песни, таба, видео

Регистрация Запомнить меня
Войти через:  Facebook Google Twitter Vk Yandex Mail.ru

Clarks - Help Me Out - текст песни, таба, видео

Печатать
Просмотров: 125
Fill 1 - Intro (4x)

     E (let ring)

|------0---0----0----0-------0----0----0----0--|
|----9---9---10---10---10/12---12---10---10----|
|----------------------------------------------|
|----------------------------------------------|
|----------------------------------------------|
|----------------------------------------------|

After four times, go from the 10th fret to an open E chord
and let it ring baby!!

E

E                             G
You always told me that you'd
                       A
Understand if I ever found something else
                 E
That I wanted to do
E                                     G
You always showed me right from wrong
                           A
You always let me sing my song
                        E
That's what I wanted to do

CHORUS:
E
Help me out (I'm just a little down and out)
G
Help me out (You gotta let me scream and shout)
A
Help me out
               E
C'mon help me out

2nd VERSE:

When I find myself alone
Living life without a home
That's where I wanted to be
If I need you in the end
Will you always be my friend
That's what I need you to be

CHORUS (repeat twice)
E
Help me out (I'm just a little down and out)
G
Help me out (You gotta let me scream and shout)
A
Help me out
               E
C'mon help me out

Help me out
I'm just a little down and out
Help me out
You gotta let me scream and shout
Help me out
C'mon help me out
C'mon help me out

Solo (over open chords)
If you know your scales, this one works around the
E minor pentatonic scale. It was hard to transcribe this
cause it was tough to hear what was going on AND also
cause I suck! Just fool with it to get the timing. Rob seemed
to use a lot of sliding and hammer-ons, so listen carefully.

|-------------------------------------------------------|
|-------------------------------------------------------|
|-------9------9------9------9--------------------------|
|---7/9----7/9----7/9----7/9------5---5---5----7---7----|
|-----------------------------------7---7---7----7---7--|
|-------------------------------------------------------|


|-----------------------------------12--------12--------|
|-------------------------------10b-------10b-----------|
|---9h12-9--9h12-9---9--9h12--9---------9---------------|
|---9----9--9----9---9--9-----9---------9---------------|
|-------------------------------------------------------|
|-------------------------------------------------------|


|-------------------------------------------------------|
|---10b--10--9------------------------------------------|
|---------------12--9--9--------------------------------|
|-------------------------11--9-------------------------|
|--------------------------------12--9------------------|
|---------------------------------------12--------------|


|------------------------------12--------12--12--12--12-|
|------------------------10/12-12--10/12-12--12---------|
|---12--12h9--12--12h9----------------------------------|
|----9---9-9---9---9-9----------------------------------|
|-------------------------------------------------------|
|-------------------------------------------------------|


|---12--11/12--12--11/12--12---12h10--10--10--10h9--9---|
|-------------------------------------------------------|
|-------------------------------------------------------|
|-------------------------------------------------------|
|-------------------------------------------------------|
|-------------------------------------------------------|


|---9--9--9--------12----12----12----12-----------------|
|------------10/12-12--12---12----12-----Then back into-|
|----------------------------------------Fill 1 (twice)-|
|-------------------------------------------------------|
|-------------------------------------------------------|
|-------------------------------------------------------|


REPEAT CHORUS until you've jumped around so much
that your feet hurt and head aches!

End abruptly on the E.
Добавлено: 28.05.2012
Другие материалы по этой песне:
  • Аккорды и текст

Страница создана 11.05.2012
http://primanota.ru/clarks/help-me-out-chords.htm
Привет, Гость.
Предлагаем пройти революционный курс по гитаре.
Подарок от PrimaNota.Ru, забирай!