PrimaNota.ru - самый крупный в мире бесплатный архив песенных текстов, аккордов, табулатур и нот


Clark Jed - Hurricane - таба, видео

Регистрация Запомнить меня
Войти через:  Facebook Google Twitter Vk Yandex Mail.ru

Clark Jed - Hurricane - таба, видео

Печатать
Просмотров: 73
Ok there are no words to this song. Its just music, but very pretty
music! I hope you like it!
 
E-----------------------------------------------------------------
B-----------------------------------------------------------------
G-----------------------------------------------------------------
D----9-------7-------4---5-----2-----2------2---------5------
A---------------------------------3------------------------------
E----9-------7-------0---0--------------------3--------5-------
 
X4
 
ENDING
 
E------------------------------------------------------------------
B------------------------------------------------------------------
G------------------------------------------------------------------
D---7----7-------5----4-----2-----------------------------------
A------------------------------------------------------------------
E---7----7-------------------0------------------------------------
 
X2

     
Добавлено: 08.08.2013
Другие материалы по этой песне:
  • Аккорды и текст

Страница создана 08.08.2013
http://primanota.ru/clark-jed/hurricane-chords.htm
Привет, Гость.
Предлагаем пройти революционный курс по гитаре.
Подарок от PrimaNota.Ru, забирай!