PrimaNota.ru - самый крупный в мире бесплатный архив песенных текстов, аккордов, табулатур и нот


Claris - Border - бас-таба, видео

Регистрация Запомнить меня
Войти через:  Facebook Google Twitter Vk Yandex Mail.ru

Claris - Border - бас-таба, видео

Печатать
Просмотров: 107
Авторы музыки: 重永亮介
Авторы текста: meg rock
Song: Border
Artist: Claris
Tabbed By : ChaelMi
e-mail: ikel_22@yahoo.com
Tuning: BEADG


(0:11) Verse I
|--------------------------14-------|--------------------------------|
|-----141211----11----1112---141211-|----141211----11----------------|
|-/12---------12--12----------------|-12---------12--12--7--5--------|
|-----------------------------------|------------------------75--055-|
|-----------------------------------|--------------------------------|


(0:22) Pre-Chorus I
|--------------------------|-----------------------------|----------------------------------|
|--------------------------|-----------------------------|----------------------------------|
|-5-05-045430--4-04-056540-|-22222--2--4[x8]-5[x8]-7[x8]-|-121212-141414-161616-171717-1919-|
|--------------------------|-------3-3-------------------|----------------------------------|
|--------------------------|-----------------------------|----------------------------------|


(0:36) Chorus I
|---------------------------------------------|---------------------------------|
|----------------------------------4--5--6--7-|--------------------------141414-|
|--------5[x16]-------------------2--3--4--5--|-5[x8]-4[x8]-222/141414-7/-------|
|-5[x16]--------0[x8]-1[x8]-2[x8]-------------|---------------------------------|
|---------------------------------------------|---------------------------------|

(0:52)
|---------------------------------------------|
|---------------------------------------------|
|--------5[x8]-7[x4]-88------4044-5[x8]-7[x8]-|
|-5[x16]---------------\2022------------------|
|---------------------------------------------|


(1:03) Post-Chorus
|------------------------------14--14h1614-|
|------------------1412----1112--14--------|
|----12---12h14p12-----1412----------------|
|-5~/--12----------------------------------|
|------------------------------------------|


(1:13) Verse II
|-------------------------14-------|---------------------------------|
|----141211----11----1112---141211-|----141211----11-----------------|
|-12---------12--12----------------|-12---------12--12--7--5------/\-|
|----------------------------------|------------------------75---7---|
|----------------------------------|---------------------------------|

(1:24) 
|-------------|----------------|
|-------------|----------------|
|--------754--|--------12[x16]-|
|-5[x24]----7-|-5[x16]---------|
|-------------|----------------|


(1:35) Pre-Chorus II
|--------------------------|------------------------------|-----------------------|
|--------------------------|---16--16--18--18-------------|-----------------------|
|--------------------------|-14--14--16--16---5[x8]-7[x8]-|-121212-888-555-444----|
|--------------------------|------------------------------|--------------------00-|
|-3033-023210--2022-034320-|------------------------------|-----------------------|


(1:48) Chorus II
|------------------------------------------------|-------------------------------------|
|-------------------------------------4--5--6--7-|------------------------------141414-|
|--------5[x14]--5-------------------2--3--4--5--|-5[x5]--5--4[x8]-222/141414-7/-------|
|-5[x16]--------7--0[x8]-1[x8]-2[x8]-------------|-------5-5---------------------------|
|------------------------------------------------|-------------------------------------|

(2:04)
|---------------------------------------------------------------------------|
|-------------------------------------------12--12--12---14[x4]--------12~\-|
|--------5[x8]--5--7[x4]-88------44044--1212--12--12--12--------14[x6]------|
|-5[x16]-------5-5---------\22022-------------------------------------------|
|---------------------------------------------------------------------------|


(2:26) Instrumental
|----------------1618----|-----------------------|
|--16---16h18-19---------|-16---1618-19-1816-----|
|-/---18-------------18\-|----18------------1816-|
|------------------------|-----------------------|
|------------------------|-----------------------|


(2:37) Bridge
|-------------------|------------------------|
|---------12~-14----|-----161412-------------|
|-9---97-/------14\-|-9-9/------\9-\5~-77-99-|
|---11--------------|------------------------|
|-------------------|------------------------|


(2:48) Pre-Chorus III
|----------------------|---------------------------| |----------------------------------|
|----------------------|---------------------------| |----------------------------------|
|----------------------|-2[x8]-4[x8]-5[x8]-7777----| |-121212-141414-161616-171717-1919-|
|----------------------|------------------------00-| |----------------------------------|
|-33-55-353--77-55-575-|---------------------------| |----------------------------------|x2


(3:07) Chorus III
|---------------------------------------------|-------------------------------------|
|----------------------------------4--5--6--7-|------------------------------141414-|
|-5[x14]--5-7777------------------2--3--4--5--|-5[x5]--5--4[x8]-222/141414-7/-------|
|--------7-------0000-1[x8]-2[x8]-------------|-------5-5---------------------------|
|---------------------------------------------|-------------------------------------|

(3:20)
|---------------------------------------|--------------------------------|
|-----------------------------------15\-|--------------------------------|
|-------12[x4]-7777-5[x8]-77-15\-77-----|--------44-044----5-5-5---------|
|-5[x8]/--------------------------------|-22-022---------55-5-5-5--0[8x]-|
|---------------------------------------|--------------------------------|


(3:31) Adlib
|-----------------------------------------------------------------------|
|-----------------7---7-----9---9---------------------------------------|
|--------5[x10]-55-555-5--77-777-7-8855--------9--151717-1616-1414-1212-|
|-5[x16]-------------------------------8855-22/-------------------------|
|-----------------------------------------------------------------------|

|--------------------------------------------------|
|--------------------------------------------------|
|-5[x8]-4[x8]-14[x8]-1719-171919--171919191917-----|
|---------------------------------------------1917-|
|--------------------------------------------------|

(3:47)
|----------------14------14-------16--------|-----------------------|
|------------1212--121212--12-1414--1414----|--------44-044---------|
|----------55-------------------------------|-22-022--------555[x8]-|
|-5[x12]-77-----------------------------14\-|-----------------------|
|-------------------------------------------|-----------------------|


(3:59) Outro
|------------------------------------------------------------------|
|------------------------------------------------------------------|
|--------------/99--------4[x8]-/16-5[x8]-4[x8]-/1717--2[x8]-------|
|-5[x6]-4[x10]-----2[x8]-------------------------------------0[x8]-|
|------------------------------------------------------------------|

(4:10)
|---------------------------|--------------------|
|---------------------------|--------------------|
|--------------55-5-355-353-|-2222/1616\-5[x8]-7-|
|-55-5-355-353--------------|--------------------|
|---------------------------|--------------------|


| /  slide up
| \  slide down
| h  hammer-on
| p  pull-off


//I will update this tab once the Instrumental of this song comes out.
It will be out around Q1 or Q2 of 2015


Please rate and comment!
Suggestions are welcome.
Добавлено: 04.07.2015
Другие материалы по этой песне:
  • Аккорды и текст

Страница создана 04.07.2015
http://primanota.ru/claris/border-chords.htm
Привет, Гость.
Предлагаем пройти революционный курс по гитаре.
Подарок от PrimaNota.Ru, забирай!