PrimaNota.ru - самый крупный в мире бесплатный архив песенных текстов, аккордов, табулатур и нот


Clarence Wijewardana - Sihina Lowak Dutuwa - аккорды и текст, видео

Регистрация Запомнить меня
Войти через:  Facebook Google Twitter Vk Yandex Mail.ru

Clarence Wijewardana - Sihina Lowak Dutuwa - аккорды и текст, видео

Печатать
Просмотров: 107
Sihina Lowak Dutuwa
Clarence Wijewardana
Artist    -  Clarence Wijewardana
Song      -  Sihina Lowak ( Ver 2. Guitar Tabs Included )
Key       -  A
Beat      -  4/4

[Intro/Inter - Lead Notes]

e|---------------------------------------------------------5-----------------------|
B|----------------5-----------------10b---8---7------7-7-8---8-7-5--------5--7--5--|
G|---6----6-7-6------7--6-------------------------7-----------------6---6----------|
D|---------------------------7----------------------------------------7------------|
A|---------------------------------------------------------------------------------|
E|---------------------------------------------------------------------------------|

[Chorus]
--------------------------------------------------------------
A                A7      D              A    G        A
Sihina Lowak Dutuwa Mathakai.. Sihina Lowin Awaa Mathakai..

[Verse 1]
--------------------------------------------------------------
A                    D
Soduru mihiri suwa.. pahasa genena eei..
E     D       G          A
Adara bara unusuma mathakai...
A                          D
Eru sada tharu kata payana mihipita..
E    D       G       A
Adarayen baduna mathakai...

[Verse 2]
--------------------------------------------------------------
A                  D
Apa Hadawath eei.. nomiyena Lesa badi..
E    D     G           A
Adarayen weluna.. mathakai..
A                             D
Sithata danena suwa.. gathata danena bawa..
E       D      G       A
oba rahasin keewa mathakai..
Добавлено: 23.11.2015
Вам также может быть интересно:
Другие материалы по этой песне:
  • Аккорды и текст

Страница создана 23.11.2015
http://primanota.ru/clarence-wijewardana/sihina-lowak-dutuwa-chords.htm
Привет, Гость.
Предлагаем пройти революционный курс по гитаре.
Подарок от PrimaNota.Ru, забирай!