PrimaNota.ru - самый крупный в мире бесплатный архив песенных текстов, аккордов, табулатур и нот


Clarence Wijewardana - Malata Bamabareku Se - таба, видео

Регистрация Запомнить меня
Войти через:  Facebook Google Twitter Vk Yandex Mail.ru

Clarence Wijewardana - Malata Bamabareku Se - таба, видео

Печатать
Просмотров: 67
[intro]

E|------------------------------------------------------------------------------|
B|------------------------------------------0--------0--------0-----------------|
G|-------------------------------------2-------2--0-----2--0-----2--0--0--0-----|
D|--4--2--0--4--2--0--4--2--0----0--4----------------------------------------4--|
A|------------------------------------------------------------------------------|
E|------------------------------------------------------------------------------|

E|-------------------------------------------------------|
B|--3--2--0--3--2--0--3--2----2--0-----------------------|
G|----------------------------------2--0-----------------|
D|----------------------------------------4--2--0-----0--|
A|-------------------------------------------------4-----|
E|-------------------------------------------------------|

[chorus]


E|-----------------------------------------------------|
B|--------------------------------------------0--1--0--|
G|-----0--2--0--------------------2--2-----2-----------|
D|--4-----------4--2--0--4-----4--------4--------------|
A|-----------------------------------------------------|
E|-----------------------------------------------------|

E|-------------------------------------------------------|
B|--0--1--3--1--0----------------------------------------|
G|-----------------2--0-------------0--2--0--------------|
D|-----------------------4-------4-----------4--2--0--2--|
A|-------------------------------------------------------|
E|-------------------------------------------------------|

E|--------------------------|
B|--------------------------|
G|-----------0--------------|
D|--2--4--2-----4--2-----0--|
A|--------------------4-----|
E|--------------------------|


[verse]

E|--------------0-----------------------------------------|
B|--3--3--2--3-----3--1--0--------0--0--0--1--3--1--0-----|
G|--------------------------2--0-----------------------2--|
D|--------------------------------------------------------|
A|--------------------------------------------------------|
E|--------------------------------------------------------|


E|--------------0-----------------------------------------|
B|--3--3--2--3-----3--1--0-----------1--1--1--1--0--------|
G|--------------------------2--0--------------------2-----|
D|--------------------------------------------------------|
A|--------------------------------------------------------|
E|--------------------------------------------------------|
Добавлено: 19.06.2016
Другие материалы по этой песне:
  • Аккорды и текст

Страница создана 19.06.2016
http://primanota.ru/clarence-wijewardana/malata-bamabareku-se-chords.htm
Привет, Гость.
Предлагаем пройти революционный курс по гитаре.
Подарок от PrimaNota.Ru, забирай!