PrimaNota.ru - самый крупный в мире бесплатный архив песенных текстов, аккордов, табулатур и нот


Clare Bowditch And The Feeding Set - When I Was Five - текст песни, таба, видео

Регистрация Запомнить меня
Войти через:  Facebook Google Twitter Vk Yandex Mail.ru

Clare Bowditch And The Feeding Set - When I Was Five - текст песни, таба, видео

Печатать
Просмотров: 192
-----------------------------------------------------------------------------------------------
                     WHEN I WAS FIVE - Clare Bowditch and the Feeding Set
-----------------------------------------------------------------------------------------------
Album:     What was Left
Words:     Clare Bowditch
Music:     Clare Bowditch and the Feeding Set
           http://clarebowditch.com/
           https://www.youtube.com/watch?v=5Id1lHyacbo
Copyright: Clare Bowditch and the Feeding Set, 2005

Tabbed by:      Philipp Söhnlein 
E-mail:         ultimate-guitar.com@philipp-soehnlein.de
Tuning:         Standard Tuning, Acoustic Guitar
Tempo:          120
Time Signature: 4/4

There's also a Guitar Pro version of this tab available at 
http://tabs.ultimate-guitar.com/c/clare_bowditch_and_the_feeding_set/when_i_was_five_guitar_pro.htm

This Tab contains also a guitar version of the brass part and the cello part (solo).

Acoustic Guitar
===============

E |----------------------------|----------------------------|
B |----------------------------|----------------------------|
G |--------0-----------0-------|--------0-----------0-------|
D |-----1-----------1----------|-----0-----------0----------|
A |----------------------------|----------------------------|
E |--3--------3----------------|--3--------3----------------|

E |----------------------------|---------------------------||
B |----------------------------|---------------------------||
G |--------0-----------0-------|--------0-----------0------||
D |-----1-----------1----------|-----0-----------0---------||
A |--3--------3----------------|---------------------------||
E |----------------------------|--3--------3---------------||
                  Repeat through the whole song, until Outro.

Outro:
E |---------------------------||
B |---------------------------||
G |---------------------------||
D |---------------------------||
A |---------------------------||
E |--3--------3---------------||
Repeat 8 times (last time, only first note is played)


Brass
=====

Intro / Chorus 1:
E |-------|----------------|----------|-------|-------|----------------|-------|-------|
B |-------|----------------|----------|-------|-------|----------------|--1----|--3----|
G |--0----|--0-----2--3----|--3--2----|--0----|--0----|--0-----2--3----|-------|-------|
D |-------|----------------|----------|-------|-------|----------------|-------|-------|
A |-------|----------------|----------|-------|-------|----------------|-------|-------|
E |-------|----------------|----------|-------|-------|----------------|-------|-------|

E |-------|-------|-------|-------|-------|----------------|----------|------||
B |--4----|--3----|--4----|--3----|-------|----------------|----------|------||
G |-------|-------|-------|-------|--0----|--0-----2--3----|--3--2----|--0---||
D |-------|-------|-------|-------|-------|----------------|----------|------||
A |-------|-------|-------|-------|-------|----------------|----------|------||
E |-------|-------|-------|-------|-------|----------------|----------|------||

Chorus 2 / Solo:
E |-------|----------------|----------|-------|-------|----------------|-------|-------|
B |-------|----------------|----------|-------|-------|----------------|--1----|--3----|
G |--0----|--0-----2--3----|--3--2----|--0----|--0----|--0-----2--3----|-------|-------|
D |-------|----------------|----------|-------|-------|----------------|-------|-------|
A |-------|----------------|----------|-------|-------|----------------|-------|-------|
E |-------|----------------|----------|-------|-------|----------------|-------|-------|

E |-------|-------|-------|-------|-------|----------------|----------|-------|
B |--4----|--3----|--4----|--3----|-------|----------------|----------|-------|
G |-------|-------|-------|-------|--0----|--0-----2--3----|--3--2----|--0----|
D |-------|-------|-------|-------|-------|----------------|----------|-------|
A |-------|-------|-------|-------|-------|----------------|----------|-------|
E |-------|-------|-------|-------|-------|----------------|----------|-------|

E |-------|----------------|-------|-------|-------|-------|----------------|-------|
B |-------|----------------|--1----|--3----|--4----|--3----|--4-----6--4----|--3----|
G |--0----|--0-----2--3----|-------|-------|-------|-------|----------------|-------|
D |-------|----------------|-------|-------|-------|-------|----------------|-------|
A |-------|----------------|-------|-------|-------|-------|----------------|-------|
E |-------|----------------|-------|-------|-------|-------|----------------|-------|

E |-------|-------|-------|-------|-------|----------------|----------|------||
B |--4----|--3----|--4----|--3----|-------|----------------|----------|------||
G |-------|-------|-------|-------|--0----|--0-----2--3----|--3--2----|--0---||
D |-------|-------|-------|-------|-------|----------------|----------|------||
A |-------|-------|-------|-------|-------|----------------|----------|------||
E |-------|-------|-------|-------|-------|----------------|----------|------||

Chorus 3 / Outro:
E |-------|----------------|----------|-------|-------|----------------|-------|-------|
B |-------|----------------|----------|-------|-------|----------------|--1----|--3----|
G |--0----|--0-----2--3----|--3--2----|--0----|--0----|--0-----2--3----|-------|-------|
D |-------|----------------|----------|-------|-------|----------------|-------|-------|
A |-------|----------------|----------|-------|-------|----------------|-------|-------|
E |-------|----------------|----------|-------|-------|----------------|-------|-------|

E |-------|-------|----------------|-------|-------|-------|-------|-------|
B |--4----|--3----|--4-----6--4----|--3----|--4----|--3----|--4----|--3----|
G |-------|-------|----------------|-------|-------|-------|-------|-------|
D |-------|-------|----------------|-------|-------|-------|-------|-------|
A |-------|-------|----------------|-------|-------|-------|-------|-------|
E |-------|-------|----------------|-------|-------|-------|-------|-------|

E |-------|----------------|----------|-------|-------|----------------|-------|-------|
B |-------|----------------|----------|-------|-------|----------------|--1----|--3----|
G |--0----|--0-----2--3----|--3--2----|--0----|--0----|--0-----2--3----|-------|-------|
D |-------|----------------|----------|-------|-------|----------------|-------|-------|
A |-------|----------------|----------|-------|-------|----------------|-------|-------|
E |-------|----------------|----------|-------|-------|----------------|-------|-------|

E |-------|-------|-------|-------|-------|-------|-------|------||
B |-------|-------|-------|-------|-------|-------|-------|------||
G |--0----|--0----|--0----|--0----|--0----|--0----|--0----|--0---||
D |-------|-------|-------|-------|-------|-------|-------|------||
A |-------|-------|-------|-------|-------|-------|-------|------||
E |-------|-------|-------|-------|-------|-------|-------|------||


Cello
=====

Legend:
L - tied note

Solo: 
E |-------|-------|-------|-------|-------|-------|-------|-------|
B |-------|-------|-------|-------|-------|-------|-------|-------|
G |-------|-------|-------|-------|--0----|--7----|--8----|--7----|
D |-------|--0----|--1----|--0----|-------|-------|-------|-------|
A |-------|-------|-------|-------|-------|-------|-------|-------|
E |--3----|-------|-------|-------|-------|-------|-------|-------|

E |-------|-----------5-----6----------|--5-------------|-----8--8-----8-----8-------|
B |--8L---|--8-------------------------|----------------|----------------------------|
G |-------|-----7----------------------|--------8--7L---|--7-------------------------|
D |-------|----------------------------|----------------|----------------------------|
A |-------|----------------------------|----------------|----------------------------|
E |-------|----------------------------|----------------|----------------------------|

E |--10---|--10---|--10---|--10---|
B |-------|-------|-------|-------|
G |-------|-------|-------|-------|
D |-------|-------|-------|-------|
A |-------|-------|-------|-------|
E |-------|-------|-------|-------|

E |-----------6--------5L------|--5--8-----6----|----------------------------|--5-------|
B |--8-----8-------------------|----------------|--8L----------8-------------|-----8----|
G |-----7----------------------|----------------|-----------------7----------|----------|
D |----------------------------|----------------|----------------------------|----------|
A |----------------------------|----------------|----------------------------|----------|
E |----------------------------|----------------|----------------------------|----------|

E |-------|----------------|-------|------||
B |--8L---|--8-----8-------|-------|--8---||
G |-------|-----------8----|--7----|------||
D |-------|----------------|-------|------||
A |-------|----------------|-------|------||
E |-------|----------------|-------|------||
Добавлено: 04.09.2013
Другие материалы по этой песне:

Страница создана 30.04.2012
http://primanota.ru/clare-bowditch-and-the-feeding-set/when-i-was-five-chords.htm
Привет, Гость.
Предлагаем пройти революционный курс по гитаре.
Подарок от PrimaNota.Ru, забирай!