PrimaNota.ru - самый крупный в мире бесплатный архив песенных текстов, аккордов, табулатур и нот


Clara Chung - Loveprint - таба, видео

Регистрация Запомнить меня
Войти через:  Facebook Google Twitter Vk Yandex Mail.ru

Clara Chung - Loveprint - таба, видео

Печатать
Просмотров: 101
I couldn't find any tabs for this song, so I decided to figure it out for myself. 
This is the first time I tried to figure out a whole song. 
Someone on youtube guessed the tuning (thanks!), so I figured it out from there 
and wrote it down. 
I'm not entirely sure about everything though, but it works this way, so I'm happy.

I hope the tab is clear enough.

Strumming pattern I use (exept for the part 1):
\/ /\ /\ \/ /\ /\


Tuning: D# A# D# A# D#
(D A D D A D suits me better though.)

1 (Intro/bridge/end):

D|-----------------|
A|--0--0-----------|
D|--7--0---0----0--|
D|--7--7---10---4--|
A|--0--7---10---4--|
D|-----0---0----0--|



2 (Intro/verse):
D|-(0)-----(0)----|--(0)--(0)--(0)--(0)----(0)----|
A|-(0)-----(0)----|--(0)--(0)--(0)--(0)----(0)----|
D|--0-------0-----|---0----0----0----0------0-----|
D|--0-------2-----|--/5---/4----0---/7------0-----|
A|--0-------2-----|--/5---/4----0---/7------0-----|
D|--0-------0-----|---0----0----0----0------0-----|



3 (chorus)
D|-(0)--(0)--(0)--(0)--2--4--2----|-(0)--(0)--(0)--(0)--(0)--|
A|-(0)--(0)--(0)--(0)----------2--|-(0)--(0)--(0)--(0)--(0)--|
D|-(0)--(0)--(0)--(0)-------------|-(0)--(0)--(0)--(0)--(0)--|
D|--9----0----5----0--------------|--9----7----5----0----5---|
A|--0----0----0----0--------------|--0----0----0----0----0---|
D|--9----4----5----0--------------|--9----7----5----4----5---|

D|-(0)--(0)--(0)--(0)--2--4--2----|-(0)--(0)--(0)--(0)--(0)--|
A|-(0)--(0)--(0)--(0)----------2--|-(0)--(0)--(0)--(0)--(0)--|
D|-(0)--(0)--(0)--(0)-------------|-(0)--(0)--(0)--(0)--(0)--|
D|--9----0----5----0--------------|--9----0----5----0----5---|
A|--0----0----0----0--------------|--0----0----0----0----0---|
D|--9----4----5----0--------------|--9----4----5----2----5---|



4
D|--(0)------------|
A|--(0)--3--2--0---|
D|--(0)------------|
D|---0-------------|
A|---0-------------|
D|---0-------------|



5
D|-(0)--(0)---2----0---|
A|-(0)--(0)---2----0---|
D|--0----0----0----0---|
D|--2----4---(0)--(0)--|
A|--0----0---(0)--(0)--|
D|--0----0---(0)--(0)--|


Intro: 1 & 2 (x2)

Verse: 2 (x2)
There's a rough road
That is less chosen
Because it requires some yielding

I will walk there
Show the same care
To both old enemies
And new lovers

Chorus: 3
Cause life, it runs out too soon
And all that I want to do
Give the world a love that is true
Share the love that I have with you

4 (x4)
lalala lala


verse: 1 & 2 (x2)
Want to give more
Then I want love
Gonna' make a loveprint in the concrete
Love will bind souls
Soften hard souls
Only hard hearts will shatter from falling

Chorus: 3
Cause life, it runs out too soon
And all that I want to do
Give the world a love that is true
Share the love that I have with you

4 (x4)
lalala lala

5 (x5)
tada tada tada dada

chorus: 3
Cause life, it runs out too soon
And all that I want to do
Give the world a love that is true
Share the love that I have with you


4 (x4)
lalala lala

ending: 1
Добавлено: 07.07.2013
Другие материалы по этой песне:
  • Аккорды и текст

Страница создана 07.07.2013
http://primanota.ru/clara-chung/loveprint-chords.htm
Привет, Гость.
Предлагаем пройти революционный курс по гитаре.
Подарок от PrimaNota.Ru, забирай!