PrimaNota.ru - самый крупный в мире бесплатный архив песенных текстов, аккордов, табулатур и нот


Clapton, Eric - Wonderful Tonight Live - таба, видео

Регистрация Запомнить меня
Войти через:  Facebook Google Twitter Vk Yandex Mail.ru

Clapton, Eric - Wonderful Tonight Live - таба, видео

Печатать
Просмотров: 167
----------------------------------------------------------------------------
			     Wonderful Tonight (Live) - Eric Clapton
-------------------------------------------------------------------------------
Tabbed by: Eyerandom
Email: Guitar_mastah343@yahoo.com

Tuning: Standard

Intro and Verses
G                                                                       C
e-------------------3-----3------------------0-----0---------------|
B--------------0------0-----------------1------1-------------------|
G-----------0-----0-----0-----------------0------0-----------------|
D------------------------------------2-----------------------------|
A-02----------------------------023--------------------------------|
E----3-------------------------------------------------------------|

 D
e-------------0------0----------------------|
B--------3-------3--------------------------|
G------2---2-------2------------------------|
D-020---------------------------------------|
A-------------------------------------------|
E-------------------------------------------|


G                                                                             C
e-------3------------3-----3------------------0-----0----------------|
B-------0--------0------0-----------------1------1-------------------|
G-------0-----0-----0-----0-----------------0------0-----------------|
D-------0------------------------------2-----------------------------|
A-02----2-------------------------023--------------------------------|
E--- 3---3-----------------------------------------------------------|

D
e-------------3------3----------------------|
B--------3-------3--------------------------|
G------2---2-------2------------------------|
D-020---------------------------------------|
A-------------------------------------------|
E-------------------------------------------|


Lick after each verse

e----------------------------------------------------------------------------------|
B------10b(12)r-8-10-----10b(12)r-8----------10b(12)r8-8h10-10h12 12h13-15b(17)r---|
G---77---------------77-----------9----77------------------------------------------|
D----------------------------------------------------------------------------------|
A----------------------------------------------------------------------------------|
E----------------------------------------------------------------------------------|

Outro
(Use same tab for the Intro, then go into this)
(You don't have to play it exactly as it is tabbed, be creative.  I don't even use this exact tab)


e------------13-15-17--17s19-17--19b(21) 19-17-15-----------------------|
B---13-15-17------------------------------------15-15h17----------------|
G-----------------------------------------------------------------------|
D-----------------------------------------------------------------------|
A-----------------------------------------------------------------------|
E-----------------------------------------------------------------------|

e----15-17-19-17-15-----------------------------------------------------|
B-17----------------17-15-----------------------------------------------|
G-------------------------16-14-12----12h14p12----12-14b(16)r-16p14p12--|
D---------------------------------14-----------14-----------------------|
A-----------------------------------------------------------------------|
E-----------------------------------------------------------------------|

e--------------------------------------------------------------------------|
B--------------------------------------------------------------------------|
G-----------------------------12-14-14b(16)r-12h14p12------12-14-16p14p12--|
D-14-12s10-----------10-1212s14------------------------14------------------|
A---------12------12-------------------------------------------------------|
E--------------------------------------------------------------------------|

e-----------------------------------------------15-17-19b(21)--------------|
B-----------------------------------------15-17----------------------------|
G----12-14-14b(16)--12h14p12-----12-14s16----------------------------------|
D-14------------------------14---------------------------------------------|
A--------------------------------------------------------------------------|
E--------------------------------------------------------------------------|

e----------------------------------------------------------------------------------|
B------10b(12)r-8-10-----10b(12)rp9p8--------10b(12)r8-8h10-10h12 12h13-15b(17)r---|
G---77---------------77-----------9----77------------------------------------------|
D----------------------------------------------------------------------------------|
A----------------------------------------------------------------------------------|
E----------------------------------------------------------------------------------|

e----------------------------------------------------------------------------|
B-15h17p15----15-13-12-13-15-13-12-------------------------------------------|
G-----------------------------------12-10-----------------10-----------------|
D-----------------------------------------12-10-10s8------10-----------------|
A----------------------------------------------------10---10-----------------|
E----------------------------------------------------------------------------|
Добавлено: 22.11.2013
Другие материалы по этой песне:

Страница создана 21.09.2013
http://primanota.ru/clapton-eric/wonderful-tonight-live-chords.htm
Привет, Гость.
Предлагаем пройти революционный курс по гитаре.
Подарок от PrimaNota.Ru, забирай!