PrimaNota.ru - самый крупный в мире бесплатный архив песенных текстов, аккордов, табулатур и нот


Clapton, Eric - Snake Drive - таба, видео

Регистрация Запомнить меня
Войти через:  Facebook Google Twitter Vk Yandex Mail.ru

Clapton, Eric - Snake Drive - таба, видео

Печатать
Просмотров: 143
Eric Clapton
Snake Drive - Blues Guitar Heaven
Tabbed by Gonseg


intro:

e||-----------------------------------------------------------------------------------|
B||--11\13-13-9\11-11------11\13-13-9\11-11-6---------------------------------8---8---|
G||-------------------12~----------------------8b-10-----8h10p8h10p8--10-8----10b-10b-|
D||--------------------------------------------------10--------------------10---------|
A||-----------------------------------------------------------------------------------|
E||-----------------------------------------------------------------------------------|


e||---------------------------|
B||--------------8b-----------|
G||--10-8--------8b-10p8------|
D||-------10-10---------------|
A||----------------------10---|
E||---------------------------|


rythm guitar enters:


              C                         F                                     C
e||-------------------------------------------------------------------------------------------------------|
B||-------------------------------------------------------------------------------------------------------|
G||-------------------------------------------------------------------------------------------------------|
D||---------------------------10-10-12-12-10-10-12-12-----------------------------------------------------|
A||--10-10-12-12-10-10-12-12--8--8--8--8--8--8--8--8---10-10-12-12-10-10-12-12-10-10-12-12-10-10-12-12----|
E||--8--8--8--8--8--8--8--8----------------------------8--8--8--8--8--8--8--8--8--8--8--8--8--8--8--8-----|

                         F                                                    C
e||----------------------------------------------------------------------------------------------------|
B||----------------------------------------------------------------------------------------------------|
G||----------------------------------------------------------------------------------------------------|
D||--10-10-12-12-10-10-12-12-10-10-12-12-10-10-12-12---------------------------------------------------|
A||--8--8--8--8--8--8--8--8--8--8--8--8--8--8--8--8---10-10-12-12-10-10-12-12-10-10-12-12-10-10-12-12--|
E||---------------------------------------------------8--8--8--8--8--8--8--8--8--8--8--8--8--8--8--8---|

              G                         F                                     C
e||-----------------------------------------------------------------------------------------------------|
B||-----------------------------------------------------------------------------------------------------|
G||-----------------------------------------------------------------------------------------------------|
D||--12-12-14-14-12-12-14-14--10-10-12-12-10-10-12-12---------------------------------------------------|
A||--10-10-10-10-10-10-10-10--8--8--8--8--8--8--8--8---10-10-12-12-10-10-12-12-10-10-12-12-10-10-12-12--|
E||----------------------------------------------------8--8--8--8--8--8--8--8--8--8--8--8--8--8--8--8---|

solo guitar:


e||-----------------------8------------------------------------------------11-13b--13------|
B||----------------8----8---11b-----------------------------------------13------------13~--|
G||--10b-10p8------10b-------------10b-10-8-10------8~~-10~~-(12)~~--12--------------------|
D||-----------10-------------------------------10------------------------------------------|
A||----------------------------------------------------------------------------------------|
E||----------------------------------------------------------------------------------------|


e||--13b-{stil bend}13-13p11-------10b-8-10----10-8-10-------8----------------------------------------|
B||------------------------------8-----------8------------10---10-8-10-5---8-11b-11b--11-8----8-------|
G||----------------------------------------------------------------------------------------10---8-----|
D||-----------------------------------------------------------------------------------------------10~-|
A||---------------------------------------------------------------------------------------------------|
E||---------------------------------------------------------------------------------------------------|


e||--------------------------------------8-------------------------------------------------------------------|
B||----------------8---8-6-------------8---11-8-6b-----------------------8\10\8\10\8\7\8\7\8\10\8\10\7\8\10--|
G||--10b-8h10p8-10---------8-10--------------------8---8b-8b--------8-10-8\10\8\10\8\7\8\7\8\10\8\10\7\8\10--|
D||-----------------------------10-10------------------------------------------------------------------------|
A||----------------------------------------------------------10----------------------------------------------|
E||----------------------------------------------------------------------------------------------------------|


e||--11r-11-8-11r-11-8-11r-11-8-13b---11-8----8-6-8-------6---6-8-6---------------------------------|
B||----------------------------------------11-------8-6-8---8-------8-6-8-------8-6-----------------|
G||------------------------------------------------------------------------10b~-----8-10-8\10-------|
D||-------------------------------------------------------------------------------------------10----|
A||----------------------------------------------------------------------------------------------10-|
E||-------------------------------------------------------------------------------------------------|


e||--11b-8-----------------8------------------------------------------------------------------------------------|
B||--------11--8h11p8h11p8---11-8------11b-8-11-13-----11-13-15p13-11-13----------------------------------------|
G||-------------------------------10b---------------12-------------------12-12-----8-10-10r-8h10p8----8b--------|
D||-----------------------------------------------------------------------------10-----------------10----10-10--|
A||-------------------------------------------------------------------------------------------------------------|
E||-------------------------------------------------------------------------------------------------------------|


e||---------------8------------------------------------------------------11-13-13b---16b-11-13-11--------|
B||--11b-11b-11b----11-8-----8---------8--------------------8b--------13--------------------------13-16--|
G||----------------------10b---10b-8---10b-8-10-5-8--8b-----8b-8-----------------------------------------|
D||-----------------------------------------------------10-----------------------------------------------|
A||---------------------------------------------------------------10-------------------------------------|
E||------------------------------------------------------------------------------------------------------|


e||------11-13-13b---16b-16b-16b-16b-16b--16-15-13----13-------13-11b-8----8-----18b-18-15-13-15-11-13--|
B||---13-------------------------------------------16----13-16----------11---11-------------------------|
G||-----------------------------------------------------------------------------------------------------|
D||-----------------------------------------------------------------------------------------------------|
A||-----------------------------------------------------------------------------------------------------|
E||-----------------------------------------------------------------------------------------------------|


e||-----17b------15~---------17b-15-------8---------------------------------------------8--11b-11-8----------|
B||--16------16~-----16-16~~---------11-8---11-8-6---8-6---6------11b~~-11-8----11-8----------------11b-11-8-|
G||------------------------------------------------8-----8---8-5-------------10------10----------------------|
D||----------------------------------------------------------------------------------------------------------|
A||----------------------------------------------------------------------------------------------------------|
E||----------------------------------------------------------------------------------------------------------|


e||-------------------|
B||-------------------|
G||-----------10------|
D||---8-5-----9---8---|
A||-------6---10--7---|
E||---------------8---|
E||-------------------|
Добавлено: 28.08.2013
Другие материалы по этой песне:
  • Аккорды и текст

Страница создана 28.08.2013
http://primanota.ru/clapton-eric/snake-drive-chords.htm
Привет, Гость.
Предлагаем пройти революционный курс по гитаре.
Подарок от PrimaNota.Ru, забирай!