PrimaNota.ru - самый крупный в мире бесплатный архив песенных текстов, аккордов, табулатур и нот


Clapton, Eric - She's Waiting - аккорды и текст, таба, видео

Регистрация Запомнить меня
Войти через:  Facebook Google Twitter Vk Yandex Mail.ru

Clapton, Eric - She's Waiting - аккорды и текст, таба, видео

Печатать
Просмотров: 198
Уроки эстрадного вокала в Санкт-Петербурге
She's Waiting
Clapton, Eric
Main riff (played during intro & chorus):
 
G C Dm C
|---3--3----3--3---------5--5-----------------|
|---3--3----3--3----5----6--6----5--5---------|
|---4--4----4--4----5----7--7----5--5---------|
|---5--5----5--5----5----7--7----5--5---------|
|---5--5----5--5----3----5--5----3--3---------|
|---3--3----3--3------------------------------|

The main riff can also be played using regular chord formations:

|---3--3----3--3----0----1--1----0--0----------|
|---3--3----3--3----1----3--3----1--1----------|
|---0--0----0--0----0----2--2----0--0----------|
|---0--0----0--0----2----0--0----2--2----------|
|---2--2----2--2----3------------3--3----------|
|---3--3----3--3-------------------------------|


INTRO: play main riff 6x

CHORUS (w/main riff):

She's waiting for another love
She's waiting for another love


Verse #1:

Dm Am C G
She's been waiting for another love
Dm Am C G
Someone that she can show into her heart
Dm Am C G
And when she finally finds a stronger love
Dm Am C G
Your whole world's gonna fall apart


Chorus (w/main riff):

She's waiting for another love
She's waiting for another love


Verse #2:

Dm Am C G
You've been abusing her for far too long
Dm Am C G
Think you're a king, she's your throne
Bb F C
Get ready now cause pretty soon
Bb (Am) F (Am)(Bb) (F) G
She'll be gone and you'll be on your own


Chorus (w/main riff):

She's waiting for another love
She's waiting for another love


Guitar solo:

|-----------------------------------------------------|
|-----12h13-12-13b(15)~~--13-12-13-12-----------------|
|--12---------------------------------12-12b(14)~~~---|
|-----------------------------------------------------|
|-----------------------------------------------------|
|-----------------------------------------------------|

|-----------------------------------------------------|
|-----------------------------------------------------|
|--14b(16)r14--12----12~~-----------------------------|
|-----------------14-----12---------------------------|
|-----------------------------------------------------|
|-----------------------------------------------------|

|-----------------------------------------------------|
|-----12h13-12-13b(15)~~--13-12-13-12-----------------|
|--12---------------------------------12-12b(14)~~~---|
|-----------------------------------------------------|
|-----------------------------------------------------|
|-----------------------------------------------------|

|-------------------------------------------15~~~-----|
|----------------------------15-----15b(17)-----------|
|--14b(16)r14--12----14b(16)--------------------------|
|-----------------14----------------------------------|
|-----------------------------------------------------|
|-----------------------------------------------------|


Verse #3:

Dm Am C G
I see the hunger burning in her eyes
Dm Am C G
Any fool could see there's something wrong
Bb F C
You keep pretending that nothing can
Bb (Am) F (Am)(Bb) (F) G
But I will hear you sing a different song


Main riff x2


(the song changes key at this point)


Main riff after key change:

A D Em D
|---5--5----5--5---------7--7------------------|
|---5--5----5--5----7----8--8----7--7----------|
|---6--6----6--6----7----9--9----7--7----------|
|---7--7----7--7----7----9--9----7--7----------|
|---7--7----7--7----5----7--7----5--5----------|
|---5--5----5--5-------------------------------|

Again, you can also play the riff using standard chord forms:

|---0--0----0--0----2----0--0----2--2----------|
|---2--2----2--2----3----0--0----3--3----------|
|---2--2----2--2----2----0--0----2--2----------|
|---2--2----2--2----0----2--2----0--0----------|
|---0--0----0--0---------2--2------------------|
|------------------------0--0------------------|


Outro chorus (w/main riff, gradual fade to backing vocals):

She's waiting for another love
She's waiting for another love

(Waiting for another lover)
(Hoping for a time that she'll find another)....
Добавлено: 07.01.2014
Другие материалы по этой песне:

Страница создана 10.07.2012
http://primanota.ru/clapton-eric/shes-waiting-chords.htm
Привет, Гость.
Предлагаем пройти революционный курс по гитаре.
Подарок от PrimaNota.Ru, забирай!