PrimaNota.ru - самый крупный в мире бесплатный архив песенных текстов, аккордов, табулатур и нот


Clapton, Eric - My father eyes - таба, видео

Регистрация Запомнить меня
Войти через:  Facebook Google Twitter Vk Yandex Mail.ru

Clapton, Eric - My father eyes - таба, видео

Печатать
Просмотров: 175



Date: Wed, 27 May 1998 09:20:16 +0200
From: Claudio 
Subject: c/clapton_eric/my_father_eyes.tab

A little difficult. I'm not sure all the chord are right, because the
guitar play principally solo parts and not accompainment. The chords are
a background that could be played with a keyboard, or (in a unplugged
version) by himself.

Tablatures by John Hellbom 

MY FATHER EYES
(Eric Clapton 1998)
(Pilgrim album)

Intro (Chords): 
C#-  A2  F#-  B  |  E   A2  F#-  B  (2 Times)
C#-  A2  F#-  B  |  E   A2  F#-  B
C#-  A2  F#-  B  |  E   A2  D    [D  A  E  A ]

Intro tabs

  vibr.....................................................................
e -------------------------------------------------------------------------
b ------5-------5-4--5/7-5---------------5-------5-4--5/7-5----------------
g -1--4-----------------------------1--4--------------------4--2-----------
d ---------------------------------------------------------------6--4------
A --------------------------------------------------------------------7--6-
E -------------------------------------------------------------------------

e -------------------------------------------------------------------------
b ----------5-p-4--5-5----9--7-p-5---------5-p-4--5-5----------------------
g -4---/-6---------------------------6--4---------------4-p-6-7--4-p-6-7--
d -------------------------------------------------------------------------
A -------------------------------------------------------------------------
E -------------------------------------------------------------------------

e --------------|
b --------------|
g -6--4--6--/-8-|
d --------------|
A --------------|
E --------------|


B        G#-   F#        G#-  
 Sailing down ...
C#-       E     F#        B
 Waiting for my ...
B        G#-     F#      G#-  
 Praying for ...
C#     D       La     E 
 To restore my ...


                          FILL 1:
                          e -------------|
                          b --------5-5--|
                          g -1-/-4-------|
                          d -------------|
                          A -------------|
                          E -------------|

C#-    A2   F#-        B
 Just a toerag ...
E          A2
 How did I ...
F#-         B
 What have ...
C#-       A2    F#-   B
 When will ...
E           A2
 How will I ...
F#-         B             C#-   A2  F#-
 When I look in ...
B            E    A2  F#-
 My father's ...
             B             C#-   A2  F#-
 When I look ...
B           E     A2  D   [D  A  E  A]
 My father's ...


B        G#-   F#        G#-   
 Then the light ...
C#-              E       F#   B 
 And I hear those ...
B         G#-        F#       G#-  
 And as I watch this ...
C #      D              La  E 
 Feel my heart ...

                          FILL 2:
                          e -4----2-p-0---|
                          b ------------2-|
                          g --------------|
                          d --------------|
                          A --------------|
                          E --------------|

C#-        A2      F#-     B 
 Where do I find the ...
E          A2
 How do I ...
F#-         B 
 What do ...
C#-    A2  F#-    B 
 Bit by bit, ...
E              A2
 That's when I ...
F#-           B                C#-  A2  F#-
 That's when I need ...
B            E    A2  F#-
 My father's ...
               B                C#-  A2  F#-
 That's when I need ...
B            E    A2  F#-
 My father's ...

Solo:    C#-  A   B    E  |  C#-  A  B   E 
Bridge:  C#-  A2  F#-  B  |  E   A2  F#-  B 
         C#-  A2  F#-  B  |  E   A2  F#-  A2

BRIDGE:

   let ring
e -7---------9----------------------7--5----5-------12-p-11-12-12--11--11-
b -------------5--5----9---9-p-75-------9-----5--------------------------
g ------------------------------------------------------------------------
d ------------------------------------------------------------------------
A ------------------------------------------------------------------------
E ------------------------------------------------------------------------

SOLO:

Gtr.1
e ---------12----12--11--12--12--12-11-12-p-14-12--12-p-11-12-12----------
b -9---12-----------------------------------------------------------------
g ------------------------------------------------------------------------
d ------------------------------------------------------------------------
A ------------------------------------------------------------------------
E ------------------------------------------------------------------------

Gtr.2
e -------------------------------16b--14-p-12--12-------------------------
b ------------------------------------------------------------------------
g ------------------------------------------------------------------------
d ------------------------------------------------------------------------
A ------------------------------------------------------------------------
E ------------------------------------------------------------------------

Gtr.1
e ------------------------------------------------------------------------
b --12---10---------------------------------------------------------------
g -----------13---11------------------------------------------------------
d --------------------14---11--14/16--------------------------------------
A ------------------------------------------------------------------------
E ------------------------------------------------------------------------


Then the jagged edge ...

FILL 2:
  vibr...........
e -1-----/-----4-|
b ---------------|
g ---------------|
d ---------------|
A ---------------|
E ---------------|

As my soul slides ....

My father's ....

Enjoy
blueaxe@poboxes.com


Добавлено: 13.11.2013
Другие материалы по этой песне:
  • Аккорды и текст

Страница создана 13.11.2013
http://primanota.ru/clapton-eric/my-father-eyes-chords.htm
Привет, Гость.
Предлагаем пройти революционный курс по гитаре.
Подарок от PrimaNota.Ru, забирай!