PrimaNota.ru - самый крупный в мире бесплатный архив песенных текстов, аккордов, табулатур и нот


Clapton, Eric - Hide Away - таба, бас-таба, видео

Регистрация Запомнить меня
Войти через:  Facebook Google Twitter Vk Yandex Mail.ru

Clapton, Eric - Hide Away - таба, бас-таба, видео

Печатать
Просмотров: 132
|-----------------||--------------------|
|-----------------||--------------------|
|----------9----9-||-11b13-(11)---------|
|--------9-9h11---||--------------------|
|-----------------||--------------------|
|-----------------||--------------------|

|--------------------------------|-------------|
|--------------------------------|-------------|
|----------9-11b13==(11)-11-9----|-9--11-------|
|---9-9h11--------------------11-|-------------|
|--------------------------------|-------------|
|--------------------------------|-------------|

|-----------------------------|------------|-------------------------------|
|-----------------------------|------------|-------------------------------|
|------9------9------9------9-|-9----------|----------9-11b13-(11)-11-9----|
|-9h11---9h11---9h11---9h11---|------------|---9-9h11-------------------11-|
|-----------------------------|------------|-------------------------------|
|-----------------------------|------------|-------------------------------|

|----------------|----------------0-|-2-2-2-2-2h4-0-2-0---|
|----------------|----------0-0h2---|-------------------2-|
|-9--------7s8s7-|-(7)--------------|---------------------|
|----------6s7s6-|-(6)--------------|---------------------|
|----------7s8s7-|-(7)--------------|---------------------|
|----------------|------------------|---------------------|

|-----0-----0-----0-------|-------0--------------------|-0-------------------||
|-0h2---0h2---0h2---0---0-|-------------3b3.5----------|-0---0---------------||
|---------------------2---|-0-(0)-------------4--2-0---|-------2-(2)--2b4-2--||
|-------------------------|--------------------------2-|---2-----------------||
|-------------------------|----------------------------|---------------------||
|-------------------------|----------------------------|---------------------||

|------------------|----------------------|
|------------------|--------3---3---3---3-|
|-0tr1--------0h1--|----2s4-4-4-4-4-4-4-4-|
|-------2--2-------|----------------------|
|------------------|----------------------|
|------------------|----------------------|

|----------------------------------|--------------------------------|
|-(3)---3----3----3-(3)---3---3----|-3----3---3---------------------|
|-(4)-4-4--4-4--4-4-(4)-4-4-4-4--4-|-4--4-4-4-4-2-0-2b4r(2)-(2)-0---|
|----------------------------------|------------------------------2-|
|----------------------------------|--------------------------------|
|----------------------------------|--------------------------------|

|---------------|------------------|-------------------|
|---------------|--------5--5--7-5-|-7b9====5--7b9-----|
|-2-0-2--2-0----|------6-----------|------6------------|
|---------------|----7-------------|-------------------|
|---------------|------------------|-------------------|
|---------------|------------------|-------------------|

|-----------------------|-------------------------|--------------------------|
|-------3-3-3-3-3---3-3-|-3-3-3-3-3-3-3-3-3-3-3-3-|-3-3-3-3-3-3-3-3-3-3-3-3--|
|---2s4-4-4-4-4-4-4-4-4-|-4-4-4-4-4-4-4-4-4-4-4-4-|-4-4-4-4-4-4-4-4-4-4-4-4--|
|-----------------------|-------------------------|--------------------------|
|-----------------------|-------------------------|--------------------------|
|-----------------------|-------------------------|--------------------------|

|--------------------------|-0----------------||
|-5--3---3-----------------|-0--0-------------||
|------4---2-0---0-1-0-----|------2-(2)-0-----||
|--------------2-------2---|--------------2\--||
|------------------------2-|------------------||
|--------------------------|------------------||

|--------------|-------------------|
|--------------|-------------------|
|--------------|-------------------|
|--------------|-----------1s2-----|
|------------2-|-5-2-4-2-----------|

|--------------|------------------|--------------|-------------------|
|--------------|------------------|--------------|-------------------|
|--------------|------------------|--------------|-------------------|
|--------------|-----------1s2----|-2----------2-|-5-2-4-2---1s2-----|
|------------2-|-5-2-4-2----------|-0-----4------|-------------------|
|-0-----4------|------------------|--------------|-------------------|

|--------------|------------------|--------------|-------------------|
|--------------|------------------|--------------|-------------------|
|--------------|------------------|--------------|-------------------|
|--------------|-----------1s2----|------------4-|-7-4-6-4---1s2-----|
|------------2-|-5-2-4-2----------|-2-----6------|-------------------|
|-0-----4------|------------------|--------------|-------------------|

|--------------|--------------||----------12-------|
|--------------|--------------||-12----12----------|
|--------------|--------------||-14b16-------------|
|--------------|--------------||-------------------|
|------------2-|-5-2-4-2------||-------------------|
|-0-----4------|--------------||-------------------|

|-------------------12--------------------|
|----------------12-----------------------|
|---14b16==(14)r-------14p12----14-12b13--|
|----------------------------14-----------|
|-----------------------------------------|
|-----------------------------------------|

|-----------------|--------------------------|
|-----------------|----14b15--14pb15-12------|
|----------12b13--|----14b16==14pb16-12------|
|----14-----------|----------------------14--|
|-----------------|--------------------------|
|-----------------|--------------------------|

|--------------------------|----------------------------------|
|----14b15--14pb15-12------|----14b15--14pb15-14-14-12b12.5---|
|----14b16==14pb16-12------|----14b16==14pb16-14-14-12b12.5---|
|----------------------14--|----------------------------------|
|--------------------------|----------------------------------|
|--------------------------|----------------------------------|

|---------------------------------|
|----14b15--14pb15-14-14-12b12.5--|
|----14b16==14pb16-14-14-12b12.5--|
|---------------------------------|
|---------------------------------|
|---------------------------------|

|-----------------12-------------12----------|------------------------------|
|--------------12----15-12-15b16----15b16-12-|-15b17----15-12----12---------|
|---14b16==(14)r-----------------------------|----------------14---12-12b13-|
|--------------------------------------------|------------------------------|
|--------------------------------------------|------------------------------|
|--------------------------------------------|------------------------------|

|----------------------------------------------|
|---15b17==(15)r-15-12-------------------------|
|----------------------14pb16r(14)-12-14-12b13-|
|----------------------------------------------|
|----------------------------------------------|
|----------------------------------------------|

|------------12----------------------|------------------------||
|---------12----15-12----------------|------------------------||
|---12-13-------------14b16-14-12----|-12h13------------------||
|---------------------------------14-|-------14---------------||
|------------------------------------|----------14-14-(14)----||
|------------------------------------|------------------------||

|-12-12-12-12-12-12-12\-----|-12-12-12-12-12-12-12\-----|
|--9--9--9--9--9--9--9\-----|--9--9--9--9--9--9--9\-----|
|-11-11-11-11-11-11-11\-----|-11-11-11-11-11-11-11\-----|
|---------------------------|---------------------------|
|---------------------------|---------------------------|
|---------------------------|---------------------------|

|---9-7-2s4s2-0-2s4s2-|-0-4s2p0---------------|
|---------------------|-----------------------|
|---9-7-2s4s2-1-2s4s2-|-1-4s2-1-2b4r(2)p0-2-0-|
|---------------------|-----------------------|
|---------------------|-----------------------|
|---------------------|-----------------------|

|---------------|-7-5-----------7-5-3---------|-----------------------------|
|-------------5-|-----7b8r(7)-5-------7-5---5-|-7b9==7-7-7-7-7-7-7-7-7-7-7r-|
|-2--0-----/6---|-------------------------6---|-----------------------------|
|---------------|-----------------------------|-----------------------------|
|---------------|-----------------------------|-----------------------------|
|---------------|-----------------------------|-----------------------------|

|-----------------------------------|-----------------------|
|-7b9==7-7-7-7-7r-7b9r(7)p5---5-7b9r|=(7)p5-7---5----10b12==|
|---------------------------6-------|---------6-------------|
|-----------------------------------|-----------------------|
|-----------------------------------|-----------------------|
|-----------------------------------|-----------------------|

|------------------------|------------------|
|-10r-10-8-10-8b8.5------|------------------|
|--------------------9p7-|-9--7-------------|
|------------------------|------9s7-5-7-5---|
|------------------------|----------------7-|
|------------------------|------------------|

|-------------------||---------------------|----------------------|
|-------------------||---------------------|----------------------|
|-7s9---------------||---------------------|----------------------|
|------9-9-(9)------||---------2-------2---|---------2-------2----|
|-------------------||---------2-2-2-4---4-|---------2-2-2-4---4--|
|---------------7\--||-0-0-4-4-------------|-0-0-4-4--------------|

|---------------------|---------------------|---------------------|
|---------------------|---------------------|---------------------|
|---------------------|---------------------|---------------------|
|---------2-------2---|-----------------2---|-------4s7-------7---|
|---------2-2-2-4---4-|---------2-2-2-4---4-|-0-0-4-4s7-7-7-9---9-|
|-0-0-4-4-------------|-0-0-4-4-------------|---------------------|

|---------------------|---------------------|---------------------|
|---------------------|---------------------|---------------------|
|---------------------|---------------------|---------------------|
|-------4s7-------7---|---------2-------2---|---------2-------2---|
|-0-0-4-4s7-7-7-9---9-|---------2-2-2-4---4-|---------2-2-2-4---4-|
|---------------------|-0-0-4-4-------------|-0-0-4-4-------------|

|----------------------|---------------------|---------------------||
|----------------------|---------------------|---------------------||
|----------4-4-4---4---|---------2-2-2---2---|---------------------||
|----------4-4-4-6---6-|---------2-2-2-4---4-|---------2-2-2---2---||
|-2-2-/6-6-------------|-0-0-4-4-------------|---------2-2-2-4---4-||
|----------------------|---------------------|-0-0-4-4-------------||

|------------------|-12-----12---------|---12----12-------------------|
|------------------|-15b17--15b17------|---15b17----15-12----12-------|
|------------------|-------------------|------------------14----12h14-|
|------------------|-------------------|------------------------------|
|------------------|-------------------|------------------------------|
|-7-/7-7-7-(7)-----|-------------------|------------------------------|

|-----------------------------------------|
|-----------------------------------------|
|-(14)------------12-12b13------15pb17r===|
|------14-14-(14)-------------------------|
|-----------------------------------------|
|-----------------------------------------|

|----------------------------|--------------------------------------------|
|-----15pb17r(15)------------|--------------------------------------------|
|-12--------------12--12b13--|-12b14--12b14-12b13-12b14-12b13-12b14-12b13-|
|----------------------------|--------------------------------------------|
|----------------------------|--------------------------------------------|
|----------------------------|--------------------------------------------|

|---------------------------------------------------|-----------------------------
|---------------------------------------------------|-----------------------------
|---12b14---12b13-12b14-13pb15-12pb14-13pb15-12pb14-|-13pb15-12pb14-13pb15-12pb14r
|---------------------------------------------------|-----------------------------
|---------------------------------------------------|-----------------------------
|---------------------------------------------------|-----------------------------

--------------------------------|
-----15-14pb16r(14)-------------|
(12)----------------14-14----12-|
--------------------------14----|
--------------------------------|
--------------------------------|

|----------12-------------15b17==(15)r--|-15-12-------------------------------|
|-------12------------------------------|-------15-12----------------14-------|
|-14b16-------14-12b13------------------|-------------14b16-14-12----14----12-|
|---------------------------------------|-------------------------14----14----|
|---------------------------------------|-------------------------------------|
|---------------------------------------|-------------------------------------|

|----------12-----------------------------------------|
|-------12--------------------------14----------------|
|-14b16-------14b16r(14)-(14)-12----14-12b14----------|
|--------------------------------14----------14-12-14-|
|-----------------------------------------------------|
|-----------------------------------------------------|

|-----14b16==(14)r-14b16-16-16-16s14---------12-(12)-|
|------------------------------------12-(12)---------|
|----------------------------------------------------|
|-14-------------------------------------------------|
|----------------------------------------------------|
|----------------------------------------------------|

|-12----------------------|---------------------------------------|
|-------------------------|---------------------------------------|
|-----12b13---------------|-/13-13-13-13-13-13-13-13-13-13-13-13--|
|-------------------------|-/14-14-14-14-14-14-14-14-14-14-14-14--|
|-----------14-(14)--14\--|---------------------------------------|
|-------------------------|---------------------------------------|

|---------------------|-------------------------------------|
|---------------/17\--|-12-12-12-12-12-12-12-12-12-12-12-12-|
|-12------------------|-13-13-13-13-13-13-13-13-13-13-13-13-|
|-14-14-(14)----------|-------------------------------------|
|---------------------|-------------------------------------|
|---------------------|-------------------------------------|

|------------------12--|-------------------|
|-12-----12-12-12------|-15b17p=====12-12--|
|-14b16==14-14-14r-----|-------------------|
|----------------------|-------------------|
|----------------------|-------------------|
|----------------------|-------------------|

|----------------------------------|
|-15b17----15b17-15-12----12-------|
|----------------------14----12b13-|
|----------------------------------|
|----------------------------------|
|----------------------------------|

|----------------12-15b16-12----|----------------12---------12--|
|-------------12-------------12-|-------12-------12---12-14-----|
|-------12-13-------------------|-14b16----14-13----------------|
|-14----------------------------|-------------------------------|
|-------------------------------|-------------------------------|
|-------------------------------|-------------------------------|

|-14b16--12---------------------|
|-----------12----12------------|
|--------------14----12s13------|
|-------------------------------|
|---------------------------14--|
|-------------------------------|

|---15b17==(15)r----15-12----|-12-----------------------------|
|-------------------------15-|-----15-12----------------14----|
|----------------------------|-----------14b16-14-12----14----|
|----------------------------|-----------------------14----14-|
|----------------------------|--------------------------------|
|----------------------------|--------------------------------|

|------------------------------12-|-14b16---------|
|-12------------------12-12h14----|---------------|
|-13-13---------------------------|---------------|
|-------14------------------------|---------------|
|----------14-14-(14)-------------|---------------|
|---------------------------------|---------------|

|------------12-14b16-14----12-12-|-(12)--14b16-------17b19--|
|---12-12h14-------------14-------|--------------------------|
|---------------------------------|--------------------------|
|---------------------------------|--------------------------|
|---------------------------------|--------------------------|
|---------------------------------|--------------------------|

|-(17)----17-15-15h17p15----|-----15b16-----15b17--|
|------------------------17-|-17-------------------|
|---------------------------|----------------------|
|---------------------------|----------------------|
|---------------------------|----------------------|
|---------------------------|----------------------|

|-15--12-----------------------------|
|--------15-12----------------14-----|
|--------------14b16-14-12----14-----|
|--------------------------14----14--|
|------------------------------------|
|------------------------------------|

|---------------------------12-|-14b16==(14)r-12---------------------------|
|------------------12-12h14----|-----------------12----12------------------|
|-13---------------------------|--------------------14----12b13r(12)-------|
|----14------------------------|-------------------------------------14-14-|
|-------14-14-(14)-------------|-------------------------------------------|
|------------------------------|-------------------------------------------|

|---------------------------------|
|------------------14-------------|
|-14b16r(14)-12----14-12----------|
|---------------14----------------|
|------------------------14--12---|
|---------------------------------|

|-----------------------------------|
|---15b17==(15)r-15-12----12--------|
|----------------------14----12-----|
|-------------------------------14--|
|-----------------------------------|
|-----------------------------------|

|---------12-14----12-14----12-14-||-14b16-----------------*|
|---12-14-------14-------14-------||-----------------------*|
|---------------------------------||--------7s8s7-(7)--7\--*|
|---------------------------------||--------6s7s6-(6)--6\--*|
|---------------------------------||-----------------------*|
|---------------------------------||-----------------------*|


Добавлено: 20.07.2013
Другие материалы по этой песне:

Страница создана 26.02.2012
http://primanota.ru/clapton-eric/hide-away-chords.htm
Привет, Гость.
Предлагаем пройти революционный курс по гитаре.
Подарок от PrimaNota.Ru, забирай!