PrimaNota.ru - самый крупный в мире бесплатный архив песенных текстов, аккордов, табулатур и нот


Clapton, Eric - Have You Ever Loved a Woman - текст песни, таба, бас-таба, видео

Регистрация Запомнить меня
Войти через:  Facebook Google Twitter Vk Yandex Mail.ru

Clapton, Eric - Have You Ever Loved a Woman - текст песни, таба, бас-таба, видео

Печатать
Просмотров: 183
Уроки эстрадного вокала в Санкт-Петербурге
============================================================================
Artist:Eric Clapton
Title:Have you ever loved a Woman

Tuning: Standard (E A D G B e)

Legend:
/=slide up
\=slide down
~~=vibrato
h=hammer on
p=pull off


    [Solo 3:25] [Duane Allman, With Slide]

e|--20-19----18/20~~---------------|--18/20--------------------------------|
B|--------20-----------------------|--------20\18--------------------------|
G|---------------------------------|--------------/21----------------------|
D|---------------------------------|------------------20/22~~--------------|
A|---------------------------------|---------------------------------------|
E|---------------------------------|---------------------------------------|
 |
e|---------------------------------|---------------------------------------|
B|---------------------------------|---------------------------------------|
G|----------8h9p8------------------|---------------------------------------|
D|--10--10-10------10-8-8----------|--10--10-12---12--10-10------8----8-10-|
A|------------------------9p8-6----|---8--18-8----8---8--8--8h10---10------|
E|------------------------------8--|---------------------------------------|


e|-------------------------------------------------------------------------|
B|--20\18----18/20-20\18----18/20-20\18----18/20-20\18----20---------------|
G|--------20-------------20-------------20-------------20-20---------------|
D|-------------------------------------------------------------------------|
A|-------------------------------------------------------------------------|
E|-------------------------------------------------------------------------|
 |
e|-------------------------------------------------------------------------|
B|--8----------------------------------------------------------------------|
G|--8h9--------------------------------------------------------------------|
D|-------10--------8----8-----------8--8--------8------8-------------------|
A|------------8h10-8h10-8h10---8h10-10-8h10--8--8h10---8h10----------------|
E|-------------------------------------------------------------------------|


e|----------------------------------18/20---18/20\19\18-------18/20--------|
B|--20\19-----20-----20\18----18/20---------------------20\18--------------|
G|--------20/-----20-------20-19/20----------------------------------------|
D|-------------------------------------------------------------------------|
A|-------------------------------------------------------------------------|
E|-------------------------------------------------------------------------|
 |
e|-------------------------------------------------------------------------|
B|-------------------------------------------------------------------------|
G|-------------------------------------------------------------------------|
D|---8-----8-----------------------------10---10-10-10-------10-10---------|
A|-8-8h10--8h10--10p8----6-------------------------------------------------|
E|--------------------------8----------------------------------------------|


e|--20~~--20\18-------22/23------18-|-20~~--22/23\20------------19---------|
B|--------------20\18-------15/-----|-----------------20\19----------------|
G|----------------------------------|-----------------------21-------------|
D|----------------------------------|--------------------------------------|
A|----------------------------------|--------------------------------------|
E|----------------------------------|--------------------------------------|
 |
e|----------------------------------|--------------------------------------|
B|----------------------------------|--------------------------------------|
G|----------------------------------|------------------------------8-------|
D|--10--10-12---12-10-10----12------|--10--10-12--12-10-10-10------8-10----|
A|--8---8--8----8--8--8-----8----8--|--8---8--8---8--8--8--8--8h10---------|
E|----------------------------------|--------------------------------------|


e|--20~~--18/20~~--18/20~~----------------|---------11/12------------------|
B|--------------------------20\18-----20--|--11/13--------/13~~--13\11-----|
G|--------------------------------21/-----|------------- --------------11--|
D|----------------------------------------|--------------------------------|
A|----------------------------------------|--------------------------------|
E|----------------------------------------|--------------------------------|
 |
e|----------------------------------------|--------------------------------|
B|--------------------------------8-------|--8-----------------------------|
G|--------------------------8/10--8--10---|--8h9p8-------------------------|
D|--------------------------8/10-----10---|--------------------------------|
A|--10--10-12---12--10--10----------------|--------10-12--12-10---10--8-9--|
E|--8---8--8----8---8---8-----------------|--------8--8---8--8-------------|


e|--\6---\6---\6---\6---\6---\6--------|-\6---\6----10/11------------------|
B|-----8----8----8----8----8----8------|----8----8--------13\11------------|
G|-------------------------------------|------------------------11\9----6\-|
D|-------------------------------------|-----------------------------------|
A|-------------------------------------|-----------------------------------|
E|-------------------------------------|-----------------------------------|
 |
e|-------------------------------------|-----------------------------------|
B|-------------------------------------|-----------------------------------|
G|-------------------------------------|-----------------------------------|
D|-12-12-12-12-12-12-12-12-12-12-12-14-|-3-----3---3------3----3----3------|
A|-10-10-10-10-10-10-10-10-10-10-10-10-|-3-----3---3------3----3----3--5b6-|
E|-------------------------------------|-1-----1---1------1----1----1------|


e|-------20~~~--18/20-18/20-----------------|------------------------------|
B|--13~~-------------------20-20\18--20--18-|-/20-18--20-18/20-------------|
G|-----------------------------------20-----|-/20-----20------19/20--------|
D|------------------------------------------|----------------------20\18---|
A|------------------------------------------|------------------------------|
E|------------------------------------------|------------------------------|
 |
e|---------------------------8-----------8--|--------8-------8------8------|
B|-------------------------8-----------8----|------8-------8-------8-------|
G|--5----9-----------10b12-------10b12------|-10b12---10b12---10b12---10b12|
D|--5----9---10--10-------------------------|------------------------------|
A|--3----7----------------------------------|------------------------------|
E|------------------------------------------|------------------------------|


Eric Clapton solo's after this.  Check out my
other tab for it. 

    *ROCK ON*

============================================================================
Добавлено: 01.08.2013
Другие материалы по этой песне:
  • Аккорды и текст

Страница создана 07.04.2012
http://primanota.ru/clapton-eric/have-you-ever-loved-a-woman-chords.htm
Привет, Гость.
Предлагаем пройти революционный курс по гитаре.
Подарок от PrimaNota.Ru, забирай!