PrimaNota.ru - самый крупный в мире бесплатный архив песенных текстов, аккордов, табулатур и нот


Clapton, Eric - Get Lost - текст песни, таба, перевод, видео

Регистрация Запомнить меня
Войти через:  Facebook Google Twitter Vk Yandex Mail.ru

Clapton, Eric - Get Lost - текст песни, таба, перевод, видео

Печатать
Просмотров: 1366
Get Lost - Eric Clapton
Album - Chronicles

Steel String Acoustic
Standard Tuning (E,A,D,G,B,e)

Intro:
Riff A (2x):	
|---------------------------------------------|
|--2-----2---2---------4----------0--------0--|
|------2---------2---------2---------0h1-2----|
|----2---------2---------2---------2----------|
|---------------------------------------------|
|-2--------0---------2----------0-------------|

Riff B:
|------------0-------------------------|
|-----7-5~-2---3~-2h3-2-0--------------|
|-/6~---------------------2~-2/4\2\1---|
|------------------------------------4~|
|--------------------------------------|
|--------------------------------------|

|----------4~\2~-----------------0-----|
|-----7-5~-------2h3-2-0-----------2~--|
|-/6~--------------------2-2/4\2-------|
|--------------------------------------|
|--------------------------------------|
|--------------------------------------|

Verse 1:
F#m    E6    Bm7           E  
 I'm sorry. Why should I say I'm sorry?   
F#m    E6          Bm7               Esus4 E Esus4 E  
 If I've hurt you? You know you've hurt me too.  

Chorus 1:
Am      F                       Gsus4           G              Am
 But you get lost inside your tears. And there is nothing I can do.
Am      F                    Gsus4         G               Am  
 Cause, I get lost inside my fear. That I am nothing without you.  

(Riff B)

Verse 2:
F#m       E6    Bm7            E  
 You're angry. Why shouldn't you be angry?  
F#m          E6                 Bm7          Esus4 E Esus4 E  
 With what we've been through? Well, I get angry too 

Chorus 2:
  Am       F                   Gsus4         G              Am
But you get lost inside your tears. And there is nothing I can do.
  Am        F                  Gsus4          G                Am
Cause, I get lost inside my fear. That I am nothing without you.  
Am    Gsus4      G               F
  That I am  nothing without you.  

Bridge:                              
		Esus4       E
Why should we have taken, so long   
   A       Asus4         F#sus4   F#  
To be looking inside of our minds?  
F                Esus4         E 
Everything we tried, went wrong.  
    A         Asus4         A      F F/E G  
Are we worried, by what we might find?  

(Riff B)

Verse 3:
F#m    E6    Bm7           E  
 I'm sorry. Why should I say I'm sorry?   
F#m    E6          Bm7               Esus4 E Esus4 E  
 If I've hurt you? You know you've hurt me too.  

Chorus 3:
Am      F                     Gsus4        G            Am
But you get lost inside your tears. And there is nothing I can do.  
Am        F                  Gsus4       G               Am
Cause, I get lost inside my fear. And I am nothing without you.  
Am        F                    Gsus4          G              Am
And you get lost inside your tears. And there is nothing we can do.   
Am        F                   Gsus4       G                Am
Cause I get lost inside my fear. Then I am nothing without you.  

Last Verse:
Riff C:
|--------------------|
|-----5--------------|
|-5h7-----5-7-5------|
|-------7------------|
|--------------------|
|--------------------|
(pluck the string close to the bridge to get the tone from the album)

Gsus4           E               Am
 Cause I am nothing without you. 

(Riff C) 
        
Gsus4        E               Am
 And I'm nothing without you.  

(Riff C)
      
Gsus4           E               Am  
  Cause I am nothing without you.  

(Riff C)
        
Gsus4           E               Am
  Cause I am nothing without you.  

Outro:
(Riff B)

|-----------------------------------------------|
|----2---2--2--2----2---2--2--2-----3--3--3--3--|
|----2---2--2--2----1---1--1--1-----2--2--2--2--|
|-----------------------------------------------|
|------------------0---0--0--0---0h2--2--2--2---|
|-0h2--2---2--2---------------------------------|

-TrueMusou
Добавлено: 05.10.2013
Другие материалы по этой песне:
  • Аккорды и текст

Страница создана 28.07.2012
http://primanota.ru/clapton-eric/get-lost-chords.htm
Привет, Гость.
Предлагаем пройти революционный курс по гитаре.
Подарок от PrimaNota.Ru, забирай!