PrimaNota.ru - самый крупный в мире бесплатный архив песенных текстов, аккордов, табулатур и нот


Clapton, Eric - Five Long Years - текст песни, таба, видео

Регистрация Запомнить меня
Войти через:  Facebook Google Twitter Vk Yandex Mail.ru

Clapton, Eric - Five Long Years - текст песни, таба, видео

Печатать
Просмотров: 211
Авторы музыки: Eddie Boyd
Авторы текста: Eddie Boyd
Song: Five Long Years
Artist: Eric Clapton
Album: From the Cradle

Intro (0:00-0:45)

e|-------------------------------------------------------------------|
B|-------------------------------------------------------------------|
G|----7-11-7----------14~-14-12--------------------------------------|
D|--9--------7~-----------------14-12----------12--------------------|
A|------------------------------------15-12-15-----------------------|
E|-------------------------------------------------------------------|
                                                                                
e|-------------------------------------------------------------------|
B|-------------------------------------------------------------------|
G|-----12-12h14p12----12—10h12p10----10------------------------------|
D|--15-------------14-------------12---------------------------------|
A|---------------------------------------(10-12)-trem----------------|
E|-------------------------------------------------------------------|

e|-------------------------------------------------------------------|
B|-------------------------------------------------------------------|
G|--14~-17-9-21-21-21-21p19p18—21p19p18—21p19p18-19-21---------------|
D|-------------------------------------------------------------------|
A|-------------------------------------------------------------------|
E|-------------------------------------------------------------------|

e|-------------------------------------------------------------------|
B|-------------------------------------------------------------------|
G|--18h19h21-19-18h19h21-19-18h19h21-19-21-21-19-18-19---------------|
D|-----------------------------------------------------19-17-19------|
A|-------------------------------------------------------------------|
E|-------------------------------------------------------------------|

e|-------------------------------------------------------------------|
B|-------------------------------------------------------------------|
G|-------------------------------------------------------------------|
D|--19-17-19-----------------------------19----------19--------------|
A|-----------15-17-(15-17)-trem-------------17h19h17----17/15--------|
E|------------------------------17-----------------------------------|

e|-------------------------------------------------------------------|
B|-------------------------------------------------------------------|
G|--------------------17b18-------17b18-------17b18----------15------|
D|-----------15-16-17-------17-15-------17-15-------17-15-17---------|
A|--15-17-18---------------------------------------------------------|
E|-------------------------------------------------------------------|

e|-------------------------------------------------------------------|
B|-------------------------------------------------------------------|
G|-----------------------------17b18-17-15h17p15---------------------|
D|--17-15----------------------------------------17-15h17p15-20------|
A|--------17-15-13h15p13---------------------------------------------|
E|-----------------------15------------------------------------------|

e|-------------------------------------------------------------------|
B|-------------------------------------------------------------------|
G|-------------------------------------------------------------------|
D|--------------------17-15-14---------------------------------------|
A|--15-17-19-17-15-16----------17-15-14------------------------------|
E|--------------------------------------17-15-17---------------------|





e|-------------------------------------------------------------------|
B|-------------------------------------------------------------------|
G|-------------------------------------------------------------------|
D|--17-14-13-14--14-12-----------------------------------------------|
A|---------------------15-12-----------------------------------------|
E|-------------------------------------------------------------------|
Добавлено: 11.07.2013
Другие материалы по этой песне:

Страница создана 18.03.2012
http://primanota.ru/clapton-eric/five-long-years-chords.htm
Привет, Гость.
Предлагаем пройти революционный курс по гитаре.
Подарок от PrimaNota.Ru, забирай!