PrimaNota.ru - самый крупный в мире бесплатный архив песенных текстов, аккордов, табулатур и нот


Clapton, Eric - Edge Of Darkness - таба, видео

Регистрация Запомнить меня
Войти через:  Facebook Google Twitter Vk Yandex Mail.ru

Clapton, Eric - Edge Of Darkness - таба, видео

Печатать
Просмотров: 169
-------------------------------------------------------------------------------
EDGE OF DARKNESS
Eric Clapton & Michael Kamen
-------------------------------------------------------------------------------

Tab by: verannion
Email:  dm_hughes1@hotmail.com


Key:    Em
Tuning: standard

 (Em Emsus2)x4                        (Em Emsus2)x4
                                                             ~~~~
|------------------------------------|--------------------------------------------|
|------------------------------------|--------------10b12---10---(10)-------------|
|------------------------------------|--------------------------------11b12r11p9--|
|------------------------------------|------------9-------------------------------|
|------------------------------------|--------------------------------------------|
|------------------------------------|--------------------------------------------|


 (Em Emsus2)x4                        (Em Emsus2)x4
     ~~~~~~~~~~~~                                                 ~~~~
|------------------------------------|--------------------------------------------|
|------------------------------------|--------------10b12---10---(10)-------------|
|-11b12------------------------------|--------------------------------11b12r11p9--|
|------------------------------------|------------9-------------------------------|
|------------------------------------|--------------------------------------------|
|------------------------------------|--------------------------------------------|


 (Gm Gm7)x4                           (Gm Gm7)x4
     ~~~~~~~~~~~~                                 ~~~ ~~~     pre-bend
|------------------------------------|---------------------------------|
|------------------------------------|---------------------------------|
|-11b12------------------------------|------------9--11—-(11)—(12)r11--|
|------------------------------------|---------------------------------|
|------------------------------------|---------------------------------|
|------------------------------------|---------------------------------|


 A7sus4                                A7sus4            Bm7/11
              ~~~                                                 ~~~~~
|------------------------------------|-------------------------------------------|
|------------------------------------|-------------------------------------------|
|-9----------(9)---------------------|---------------------11b12r11-—(11)--7-----|
|------------------------------------|------------------9---------------------7--|
|------------------------------------|-------------------------------------------|
|------------------------------------|-------------------------------------------|


 (Em Esus2)x4                         (Em Esus2)x4
  ~~~~~~~~~~~~                                               ~~~~
|------------------------------------|--------------------------------------------|
|------------------------------------|--------------10b12---10---(10)-------------|
|-9----------------------------------|-(9)----------------------------11b12r11p9--|
|------------------------------------|------------9-------------------------------|
|------------------------------------|--------------------------------------------|
|------------------------------------|--------------------------------------------|


 (Em7 B/E)x4                          (Em7 B/E)x4
                ~~~~
|------------------------------------|--------------------------------------------|
|------------------------------------|--------------------10b12---10---(10)-------|
|-11b12--------(12)------------------|-----------------------------------------9--|
|------------------------------------|------------------9-------------------------|
|------------------------------------|--------------------------------------------|
|------------------------------------|--------------------------------------------|


 (Am7 G/A)x4                                 (Am7 G/A)x4
                     ~~~~~~~~~                  ~~~~                  ~~~~
|-------------------------------------------|-------------14b15r14—-(14)—-12p10--|
|-13b15---r13-b15—-r13-------(13)-----------|------------------------------------|
|----------------------------------14b16----|-r14--------------------------------|
|-------------------------------------------|------------------------------------|
|-------------------------------------------|------------------------------------|
|-------------------------------------------|------------------------------------|


 (B7sus4 Bm7)x4                       (B7sus4 Bm7)x4
               ~~~~~~~~~                              ~~~~
|-14---------(14)--------------------|---------14b15r14----(14)----------|
|------------------------------------|---------------------------15------|
|------------------------------------|-------------------------------14--|
|------------------------------------|-----------------------------------|
|------------------------------------|-----------------------------------|
|------------------------------------|-----------------------------------|


 (Em7 Em9)x4                          (Em Esus2)x4
   ~~~~~~~~~~~~~~~
|-12---------------------------------|----------------------------------------------|
|-15b17------------------------------|--------------------10b12r10b12-(12)r10—-8\7--|
|------------------------------------|----------------------------------------------|
|------------------------------------|------------------9---------------------------|
|------------------------------------|----------------------------------------------|
|------------------------------------|----------------------------------------------|


 (C7 C7b5)x4                          (C7 C7b5)x4
  ~~~~~~~~~~~~~~~                                                  hold bend
|------------------------------------|----------------------------------10--------|
|------------------------------------|---------8h10------10b12----(12)------(12)--|
|-5----------------------------------|--------------------------------------------|
|------------------------------------|--------------------------------------------|
|------------------------------------|--------------------------------------------|
|------------------------------------|--------------------------------------------|

 (Em Esus2(x4                         (Em Esus2(x4
                   ~~~~~~~~~                                             x
|------------------------------------|------------------------------------------|
|-(12)r10p8--------------------------|-10b12—13b15—-(15)r13----10-—(10)--8--10--|
|------------9----(9)----------------|------------------------------------------|
|------------------------------------|------------------------------------------|
|------------------------------------|------------------------------------------|
|------------------------------------|------------------------------------------|


 (C7 C7b5)x4                          (C7 C7b5)x4
                ~~~~     ~~~~~
|----------10------------------------|-------------------------------------------|
|-10b12--------10----8---------------|-------------------------------------------|
|-----------------------5------------|------12----(12)--9------9--12—9h12p9------|
|------------------------------------|---------------------12----------------12--|
|------------------------------------|-------------------------------------------|
|------------------------------------|-------------------------------------------|


 (Em Esus2)x4                         (Em Esus2)x4
                  ~~~~~~                ~~~~~~
|------------------------------------|-12---------------12—14—14b15r14p12-14--|
|------------------------------------|----------------------------------------|
|-----------------------------12b14--|----------------------------------------|
|------/14--/14—-(14)----------------|----------------------------------------|
|------------------------------------|----------------------------------------|
|------------------------------------|----------------------------------------|


 (Gm Gm7)x4                           (Gm Gm7)x4
                       ~~~~~~                       ~~~~
|-15p14—12h14—12h14--(14)------------|------15b17--15-----------------------------|
|------------------------------------|-------------------15b17—(17)r15------------|
|------------------------------------|----------------------------------14b15-14--|
|------------------------------------|--------------------------------------------|
|------------------------------------|--------------------------------------------|
|------------------------------------|--------------------------------------------|


 Asus4                                Asus4                 Bm7   Bm7/11   Bm7
      ~~~~      ~~~~
|------------------------------------|------------------------------------------|
|------------------------------------|---------15-----------15------------------|
|-12h14-12---------------------------|-------------14b16--------14b16r14b16r14--|
|----------14-(14)-------------------|------------------------------------------|
|------------------------------------|------------------------------------------|
|------------------------------------|------------------------------------------|


 (Em Esus2)x4

|-----------------------------------------------------------------------------------|
|-----------------------------------------------------------------------------------|
|-----------------------------------------------------------------------------------|
|-12/14-12/14-12/14-12/14-12/14-12/14--12/14-12-------------------------------------|
|-----------------------------------------------14-12\10/12-10/12-(10)/12-10--------|
|----------------------------------------------------------------------------12p10--|


 (Em Esus2)x4

|------------------------------------|
|------------------------------------|
|------------------------------------|
|------------------------------------|
|------------------------------------|
|-h12p10h12\------------------3—5/7--|



 (Em7 Em9)x4                          (Em7 Em9)x4
            ~~~~       ~~~~                           ~~~~
|------------------------------------|------------------------------------------|
|------------------------------------|------------------------------------------|
|------------------------------------|---------7h9--(9)-------------------------|
|------------------------------------|-----------------------------7—5-7—5h7p5--|
|------/5-/5-—(5)--7—-(7)------------|------------------------------------------|
|------------------------------------|------------------------------------------|


 (C7 C7b5)x4                          (C7 C7b5)x4
                            ~~~~~~
|------------------------------------|--------------------------------------|
|------------------------------------|-----------------------8—-10b12r10\---|
|------------------------------------|------------------7/9-----------------|
|------------------------------------|--------------------------------------|
|-7-5h7p5----------------------------|--------------------------------------|
|---------7-5-(5)\3/8-(8)--(8)-------|--------------------------------------|


 (Em Esus2)x4                          (Em Esus2)x4
          ~~~~                           ~~~~
|-------------------------------------|-12--------15-12--------------------|
|-10----------------------------------|-----------------12-----------------|
|-----9--9—-(9)------x--x------14b16--|--------------------14b16-14-12h14--|
|-------------------------------------|------------------------------------|
|-------------------------------------|------------------------------------|
|-------------------------------------|------------------------------------|


 (C7 C7b5)x4                          (C7 C7b5)x4
 (Keyboards: C9)                      (Keyboards: C9)
                          ~~~~             c        c        c
|------------------------------------|-12(12)----------------------12-14--|
|------15----------------------------|-X-----------------15b17------------|
|---------14b16r14-(14)—(14)---------|-12b14----14b16---------------------|
|------------------------------------|------------------------------------|
|------------------------------------|------------------------------------|
|------------------------------------|------------------------------------|


 (Em Esus2)x4                             (Em Esus2)x4
   pre-bend    ~~~   ~~~                    pre-bend    ~~~   ~~~
|-(15)r14p12--12----12—(12)-14----12h14--|-(15)r14p12--12----12—(12)-14----15h17--|
|----------------15----------------------|----------------15----------------------|
|----------------------------------------|----------------------------------------|
|----------------------------------------|----------------------------------------|
|----------------------------------------|----------------------------------------|
|----------------------------------------|----------------------------------------|


 (Em7/D# B/E)x4                       (Em7/D# B/E)x4
                                                  rake
|-r15--------------12—(12)-----------|--------------------------------------|
|------------------------------------|--------------------------------------|
|------------------------------------|---------------12h14b16r14p12--12b14--|
|------------------------------------|------------14------------------------|
|------------------------------------|--------------------------------------|
|------------------------------------|--------------------------------------|



 (Gm Gm7)x4                           (Gm Gm7)x4
                   ~~~
|------------------------------------|------------------------------------|
|------------------------------------|------------------------------------|
|------14p12-------------------------|-----------------7/9/11-(11)b12r11--|
|------------14—-(14)----------------|------------------------------------|
|------------------------------------|------------------------------------|
|------------------------------------|------------------------------------|


 Asus4  Asus2                         Bm
  ~~~~~~                                                ~~~~
|------------------------------------|------------------------------------|
|------------------------------------|------------------------------------|
|-9----------------------------------|--------------11b12--r11-------7----|
|------------------------------------|------------9--------------------7--|
|------------------------------------|------------------------------------|
|------------------------------------|------------------------------------|


 C                               D
     ~~~~
|-------------------------------|-----------------------------------------|
|-------------------------------|-----------------------------------------|
|-7/9----(9)----(9)--7----------|---------7-9/12--9-(9)—-(9)--------------|
|----------------------9-7p5----|------/9--------------------------14b16--|
|----------------------------7--|-----------------------------------------|
|-------------------------------|-----------------------------------------|


 Em(2)                                Em(2)
    ~~~~~~~~~~~~~~~~~~~~~~~~~~~~~~~~~~~
|------------------------------------|------------------------------------|
|------------------------------------|------------------------------------|
|-(16)-------------------------------|-(16)-------------------------------|
|------------------------------------|------------------------------------|
|------------------------------------|------------------------------------|
|------------------------------------|------------------------------------|




rhythm (fingerstyle or pick/fingers combination) 

 Em Emsus2

|------3--3--2-----3--3--2-----3--3--2-----3--3--2-----|
|------5--5--5-----5--5--5-----5--5--5-----5--5--5-----|
|---------------4-----------4-----------4-----------4--|
|------------------------------------------------------|
|------------------------------------------------------|
|------0-----------------------------------------------|


 Gm Gm7

|------3--3--2-----3--3--2-----3--3--2-----3--3--2-----|
|------3--3--3-----3--3--3-----3--3--3-----3--3--3-----|
|---------------3-----------3-----------3-----------3--|
|------------------------------------------------------|
|------------------------------------------------------|
|------3-----------------------------------------------|


 A7sus4

|------0--0--------3--3--------3--3--------3--3--------|
|------3--3--------5--5--------5--5--------5--5--------|
|------------2--2--------2--2--------2--2--------2--2--|
|------------------------------------------------------|
|------0-----------------------------------------------|
|------------------------------------------------------|



| /  slide up
| \  slide down
| b  bend up
| r  release bend
| h  hammer-on
| p  pull-off
| c  cut off
| ~  vibrato
| x  mute note



Chords

Em   Esus2   Gm   Gm7   A7sus4   Bm7/11   Em7   B/E   Am7   G/A     

3     2      3     2     0        0        3     2     3     3
5     5      3     3     3        3        4     4     5     3
4     4      3     3     2        2        4     4     5     4
x     x      x     x     x        x        x     x     x     x
x     x      x     x     0        2        x     x     0     0
0     0      3     3     x        x        0     0     x     x



B7sus4   Bm7   Em7   Em9   C7   C7b5   Asus4   Bm   C   D   Em(2)

  2       2     3     2     3    2      0      7    x   x    0
  5       3     3     3     5    5      3      7    5   7    8
  2       2     4     4     3    3      2      7    5   7    9
  x       x     x     x     x    x      x      9    5   7    9
  2       2     x     x     3    3      0      9    3   5    7
  x       x     0     0     x    x      x      7    x   x    x


======================================================================  06 February 2010
Добавлено: 20.10.2013
Другие материалы по этой песне:

Страница создана 27.03.2012
http://primanota.ru/clapton-eric/edge-of-darkness-chords.htm
Привет, Гость.
Предлагаем пройти революционный курс по гитаре.
Подарок от PrimaNota.Ru, забирай!