PrimaNota.ru - самый крупный в мире бесплатный архив песенных текстов, аккордов, табулатур и нот


Clapton, Eric - Crosscut Saw - текст песни, бас-таба, видео

Регистрация Запомнить меня
Войти через:  Facebook Google Twitter Vk Yandex Mail.ru

Clapton, Eric - Crosscut Saw - текст песни, бас-таба, видео

Печатать
Просмотров: 124
eric clapton_crosscut saw

TablEdited by Jan Bjorklund, Finland  jani_bjorklund@yahoo.se>
You are welcome to request for tabs!
Fingering and positions as suggested by TablEdit, please use common sense!


TablEdited by Jan Bjorklund
Tuning : E A D G 	Time Signature: 4/4

   |       |       |       |          |       |       |       |
||---------------------------------|---------------------------------||
|*---------------------------------|---------------------------------||
|*0---0-------0--------------------|-0---0-------0-------------------||
||---------------------------------|---------------------------------||

 >1|       |       |       |          |       |       |       |
|----------------------------------|----------------------------------|
|----------------------------------|----------------------------------|
|-0---0-------0--------------------|-0-----------0--------------------|
|---------------------2---3---4----|----------------------------------|

   |       |       |       |          |       |       |       |
|----------------------------------|----------------------------------|
|----------------------------------|-0-----------0--------------------|
|-0---0-------0-------4---3---4----|---------------------3---0---3----|
|----------------------------------|----------------------------------|

   |       |       |       |          |       |       |       |
|----------------------------------|----------------------------------|
|-0---0-------0-------0------------|----------------------------------|
|----------------------------------|-0-----------0--------------------|
|----------------------------------|-------------------------0---2----|

   |       |       |       |          |       |       |       |
|----------------------------------|----------------------------------|
|----------------------------------|----------------------------------|
|-0-----------0--------------------|----------------------------------|
|----------------------------------|-0-----------0--------------------|

   |       |       |       |        >2|       |       |       |
|---------------------------------||----------------------------------|
|-0---0-------0-------------------*|----------------------------------|
|---------------------------------*|-0---0-------0--------------------|
|---------------------3-------4---||-------------------------3---4----|

   |       |       |       |          |       |       |       |
||---------------------------------|---------------------------------||
|*---------------------------------|---------------------------------||
|*0---0-------0-------0------------|-0---0-------0-------0-----------||
||---------------------------------|---------------------------------||

 >1|       |       |       |          |       |       |       |
|----------------------------------|----------------------------------|
|----------------------------------|-0---0-------0--------------------|
|-0---0-------0-------0------------|-------------------------0---2----|
|----------------------------------|----------------------------------|

   |       |       |       |          |       |       |       |
|----------------------------------|----------------------------------|
|-0---0-------0--------------------|----------------------------------|
|----------------------------------|-0-----------0--------------------|
|---------------------2---3---4----|----------------------------------|

   |       |       |       |          |       |       |       |
|----------------------------------|----------------------------------|
|----------------------------------|-------------------------2--------|
|-0-----------0---0----------------|-----------------2---4-------4----|
|---------------------3---2---1----|-0---0-------4--------------------|

   |       |       |       |        >2|       |       |       |
|---------------------------------||----------------------------------|
|-0-----------0-------------------*|----------------------------------|
|---------------------------------*|-0---0-------0--------------------|
|---------------------2---0---2---||----------------------------------|

   |       |       |       |          |       |       |       |
|----------------------------------|----------------------------------|
|----------------------------------|----------------------------------|
|-0-----------0--------------------|-0-----------0--------------------|
|----------------------------------|-----------------------------4----|

   |       |       |       |          |       |       |       |
|----------------------------------|----------------------------------|
|----------------------------------|-0-----------0--------------------|
|-0---0-------0-------0------------|---------------------0---3---4----|
|----------------------------------|----------------------------------|

   |       |       |       |          |       |       |       |
|----------------------------------|----------------------------------|
|-0---0-------0-------0------------|----------------------------------|
|----------------------------------|-0-----------0--------------------|
|----------------------------------|----------------------------------|

   |       |       |       |          |       |       |       |
|----------------------------------|----------------------------------|
|----------------------------------|----------------------------------|
|-0---0-------0-------0------------|----------------------------------|
|----------------------------------|-0---0-------0--------------------|

   |       |       |       |          |       |       |       |
|----------------------------------|----------------------------------|
|-0---0-------0-------0------------|----------------------------------|
|----------------------------------|-0---0-------0--------------------|
|-------------------------3---4----|----------------------------------|

   |       |       |       |          |       |       |       |
|----------------------------------|----------------------------------|
|----------------------------------|----------------------------------|
|-0---0-------0-------0------------|-0---0-------0--------------------|
|----------------------------------|----------------------------------|

   |       |       |       |          |       |       |       |
|----------------------------------|----------------------------------|
|----------------------------------|----------------------------------|
|-0---0-------0---2---0------------|-0---0-------0-------0------------|
|-------------------------3---4----|----------------------------------|

   |       |       |       |          |       |       |       |
|----------------------------------|----------------------------------|
|-------------2--------------------|-0---0-------0--------------------|
|-0---0-----------4---3-------4----|---------------------0---3---4----|
|----------------------------------|-----------------2----------------|

   |       |       |       |          |       |       |       |
|----------------------------------||---------------------------------|
|-0---0-------0-------0------------|*---------------------------------|
|----------------------------------|*0---0-------0-------0------------|
|----------------------------------||---------------------------------|

   |       |       |       |        >1|       |       |       |
|---------------------------------||----------------------------------|
|---------------------------------||----------------------------------|
|-0-----------0-------------------||---------------------2---3---4----|
|---------------------------------||-0---0-------0--------------------|

   |       |       |       |        >2|       |       |       |
|---------------------------------||----------------------------------|
|-0---0-------0-------------------*|----------------------------------|
|-----------------0---------------*|-0---0-------0--------------------|
|---------------------2---3---4---||-----------------------------4----|

   |       |       |       |          |       |       |       |
|----------------------------------|----------------------------------|
|----------------------------------|----------------------------------|
|-0---0-------0-------0------------|-0-----------0--------------------|
|----------------------------------|---------------------3-------4----|

   |       |       |       |          |       |       |       |
|----------------------------------|----------------------------------|
|----------------------------------|-0---0-------0-------0------------|
|-0-----------0---------------4----|----------------------------------|
|----------------------------------|----------------------------------|

   |       |       |       |          |       |       |       |
|----------------------------------|----------------------------------|
|-0---0-------0--------------------|----------------------------------|
|----------------------------------|-0-----------0--------------------|
|-----------------------------2----|----------------------------------|

   |       |       |       |          |       |       |       |
|----------------------------------|----------------------------------|
|----------------------------------|----------------------------------|
|-0-----------0--------------------|-------------------------2---4----|
|-------------------------2---1----|-0-----------0--------------------|

   |       |       |       |          |       |       |       |
|----------------------------------|----------------------------------|
|-0---0-------0--------------------|----------------------------------|
|----------------------------------|-0-----------0--------------------|
|---------------------2---3---4----|----------------------------------|

   |       |       |       |        >3|       |       |       |
|----------------------------------|----------------------------------|
|----------------------------------|----------------------------------|
|-0-----------0--------------------|-0---0-------0-------4---0--------|
|---------------------2---3---4----|-----------------------------3----|

   |       |       |       |          |       |       |       |
|----------------------------------|----------------------------------|
|----------------------------------|-0-----------0---0----------------|
|-0---0-------0-------0---3---4----|---------------------2---3---4----|
|----------------------------------|----------------------------------|

   |       |       |       |          |       |       |       |
|----------------------------------|----------------------------------|
|-0-----------0--------------------|----------------------------------|
|----------------------------------|-------------------------3---4----|
|-----------------0---2---3---4----|-0---0-------0-------0------------|

   |       |       |       |          |       |       |       |
|----------------------------------|----------------------------------|
|-0---0-------0-------0------------|----------------------------------|
|----------------------------------|-0---0-------0--------------------|
|-------------------------3---4----|----------------------------------|

   |       |       |       |          |       |       |       |
|----------------------------------|----------------------------------|
|----------------------------------|----------------------------------|
|-0-----------0--------------------|-0-----------0--------------------|
|-------------------------3---4----|----------------------------------|

   |       |       |       |          |       |       |       |
|----------------------------------|----------------------------------|
|----------------------------------|----------------------------------|
|-0-----------0--------------------|-0---0-------0--------------------|
|-------------------------3---4----|-----------------2---0-------2----|

   |       |       |       |          |       |       |       |
|----------------------------------|----------------------------------|
|----------------------------------|-0---0-------0--------------------|
|-0---0-------------------0---4----|----------------------------------|
|-------------3---0---3------------|----------------------------------|

   |       |       |       |          |       |       |       |
|----------------------------------|----------------------------------|
|-0-----------0--------------------|----------------------------------|
|----------------------------------|-0---0-------0-------0------------|
|-------------------------3---4----|----------------------------------|

   |       |       |       |          |       |       |       |
|----------------------------------|----------------------------------|
|----------------------------------|----------------------------------|
|-0-----------0--------------------|-------------------------3---4----|
|-------------------------2---1----|-0---0-------0-------0------------|

   |       |       |       |          |       |       |       |
|----------------------------------|----------------------------------|
|-0---0-------0--------------------|----------------------------------|
|-----------------0----------------|-0---0-------0--------------------|
|---------------------2---3---4----|----------------------------------|

   |       |       |       |          |       |       |       |
|----------------------------------|----------------------------------|
|----------------------------------|----------------------------------|
|-0---0-------0--------------------|-0-----------0-----------2---4----|
|---------------------2---3---4----|----------------------------------|

   |       |       |       |          |       |       |       |
|----------------------------------|----------------------------------|
|-0---0-------0--------------------|-0---0-------0--------------------|
|---------------------2---3---4----|----------------------------------|
|----------------------------------|---------------------2---3---4----|

   |       |       |       |          |       |       |       |
|----------------------------------|----------------------------------|
|----------------------------------|----------------------------------|
|-0---0-------0--------------------|-0---0-------0--------------------|
|-----------------0---2---3---4----|----------------------------------|

   |       |       |       |          |       |       |       |
|----------------------------------|----------------------------------|
|----------------------------------|-0---0----------------------------|
|-----------------------------4----|-------------2---0----------------|
|-0-----------0--------------------|---------------------2---0---2----|

   |       |       |       |          |       |       |       |
|----------------------------------|----------------------------------|
|----------------------------------|----------------------------------|
|-0---0-------0--------------------|-0-----------0--------------------|
|---------------------2---3---4----|-------------------------3---4----|

   |       |       |       |          |       |       |       |
|----------------------------------|----------------------------------|
|----------------------------------|----------------------------------|
|-0-----------0--------------------|-0-----------0-------2---3---4----|
|----------------------------------|----------------------------------|

   |       |       |       |          |       |       |       |
|----------------------------------|----------------------------------|
|-0---0-------0--------------------|-0-----------0--------------------|
|----------------------------------|----------------------------------|
|----------------------------------|-----------------------------2----|

   |       |       |       |          |       |       |       |
|----------------------------------|----------------------------------|
|----------------------------------|----------------------------------|
|-0---0-------0-------0------------|-0---0-------0---0----------------|
|----------------------------------|---------------------3---2---1----|

   |       |       |       |          |       |       |       |
|----------------------------------|----------------------------------|
|----------------------------------|----------------------------------|
|----------------------------------|-0---0-------0--------------------|
|-0---0-------0-------0------------|----------------------------------|

   |       |       |       |          |       |       |       |
|----------------------------------|----------------------------------|
|----------------------------------|----------------------------------|
|-0---0-------0--------------------|-0---0-------0--------------------|
|----------------------------------|----------------------------------|

   |       |       |       |          |       |       |       |
|----------------------------------|----------------------------------|
|----------------------------------|----------------------------------|
|-0---0-------0-------0------------|-0---0-------0-------0------------|
|----------------------------------|----------------------------------|

   |       |       |       |
|----------------------------------|
|-0---0----------------------------|
|----------------------------------|
|----------------------------------|


Created with TablEdit http://www.tabledit.com/

     
Добавлено: 04.09.2013
Другие материалы по этой песне:
  • Аккорды и текст

Страница создана 17.07.2012
http://primanota.ru/clapton-eric/crosscut-saw-chords.htm
Привет, Гость.
Предлагаем пройти революционный курс по гитаре.
Подарок от PrimaNota.Ru, забирай!