PrimaNota.ru - самый крупный в мире бесплатный архив песенных текстов, аккордов, табулатур и нот


Clapton, Eric - Call Me The Breeze Live - бас-таба, видео

Регистрация Запомнить меня
Войти через:  Facebook Google Twitter Vk Yandex Mail.ru

Clapton, Eric - Call Me The Breeze Live - бас-таба, видео

Печатать
Просмотров: 200
Уроки эстрадного вокала в Санкт-Петербурге
JJ CALE & ERIC CLAPTON
They call me the breeze (Live version)

(from Crossroads - Guitar Festival)

Bass Tab

Tuning: EADG
Tempo: ??? 
Key signature: E


Intro: 00:01 
G|-----------------------------------------|-
D|------  Guitar playing  / Drums  --------|- 
A|-----------------------------------------|-
E|-----------------------------------------|-

Bass starts: 00:10 
G|--------------------|--------------------|- 
D|-2g-------2g--------|-2g-------2g--------|-
A|----2g--2h----2-4-2-|----2g--2h----------|- 
E|--------------------|--------------7-5-4-|-

G|--------------------|--------------------|- 
D|----------2g--------|-2g-------2g--------|-
A|----2g--2h----2-3-4-|----2g--2-----------|- 
E|-0g-----------------|--------------7-5-4-|-

G|--------------------|--------------------|- 
D|----------2g--------|-2g-------2g--------|-
A|----2g--2h----2-4-2-|----2g--2-----------|- 
E|-0g-----------------|--------------7-5-4-|-

Guitar solo: 00:29 (JJ Cale playing)
G|--------------------|--------------------|- 
D|-2g-------2g--------|-2g-------2g--------|-
A|----2g--2h----2-4-2-|----2g--2-----------|- 
E|--------------------|--------------7-5-4-|-

G|--------------------|--------------------|- 
D|----------2g--------|-2g-------2g--------|-
A|----2g--2h----2-3-4-|----2g--2-----------|- 
E|-0g-----------------|--------------7-5-4-|-

 
G|--------------------|--------------------|- 
D|----------2g--------|-2g-------2g--------|-
A|----2g--2h----2-4-2-|----2g--2-----------|- 
E|-0g-----------------|--------------7-5-4-|-

G|--------------------|--------------------|- 
D|----------2g--------|-2g-------2g--------|-
A|----2g--2h----2-3-4-|----2g--2-----------|- 
E|-0g-----------------|--------------7-5-4-|-


Verse1: 00:53
G|--------------------|--------------------|- 
D|-2g-------2g--------|-2g-------2g--------|-
A|----2g--2h----2-4-2-|----2g--2-----------|- 
E|--------------------|--------------7-5-4-|-
I got that green light, baby
I got to be movin' out of here
G|--------------------|--------------------|- 
D|----------2g--------|-2g-------2g--4-2---|-
A|----2g--2h----2-3-4-|----2g--2---------4-|- 
E|-0g-----------------|--------------------|-

G|--------------------|--------------------|-
D|--------------------|--------------------|- 
A|--------------------|--------------------|-
E|-5g-0g--0-5g--0-3-4-|-5g-0g--0-5g--7-5-4-|-
I got that green light, baby
I got to be movin' out of here

G|--------------------|--------------------|- 
D|----------2g--------|-2g-------2g--------|-
A|----2g--2h----2-4-2-|----2g--2-----------|- 
E|-0g-----------------|--------------4-5-6-|-
I might go out to California

G|--------------------|--------------------|-
D|--------------------|--------------------|- 
A|-2g-------2g------2-|--------------4-2---|-
E|----2g--2h----2-3---|-5g-0g--0-5g------5-|-
I might go down to Georgia, might stay here

G|--------------------|--------------------|- 
D|-2g-------2g--------|-2g-------2g--------|-
A|----2g--2h----2-4-2-|----2g--2-----2-4-2-|- 
E|--------------------|--------------------|-


Verse2: 01:31
G|--------------------|--------------------|- 
D|-2g-------2g--------|-2g-------2g--------|-
A|----2g--2h----2-4-2-|----2g--2-----------|- 
E|--------------------|--------------7-5-4-|-
Well, they call me the breeze
I keep rollin' down the road
G|--------------------|--------------------|- 
D|----------2g--------|-2g-------2g--4-2---|-
A|----2g--2h----2-3-4-|----2g--2---------4-|- 
E|-0g-----------------|--------------------|-

G|--------------------|--------------------|-
D|--------------------|--------------------|- 
A|--------------------|--------------------|-
E|-5g-0g--0-5g--0-3-4-|-5g-0g--0-5g--7-5-4-|-
Yeah now, they call me the breeze
I keep rollin' down the road

G|--------------------|--------------------|- 
D|----------2g--------|-2g-------2g--------|-
A|----2g--2h----2-4-2-|----2g--2-----------|- 
E|-0g-----------------|--------------4-5-6-|-


G|--------------------|--------------------|-
D|--------------------|--------------------|- 
A|-2g-------2g------2-|--------------4-2---|-
E|----2g--2h----2-3---|-5g-0g--0-5g------5-|-
I ain't got me nobody
I ain't carry no heavy load

G|--------------------|--------------------|- 
D|-2g-------2g--------|-2g-------2g--------|-
A|----2g--2h----2-4-2-|----2g--2-----2-4-2-|- 
E|--------------------|--------------------|-

Instrumental(1): 02:09 (Eric Clapton playing)  
G|--------------------|--------------------|- 
D|-2g-------2g--------|-2g-------2g--------|-
A|----2g--2h----2-4-2-|----2g--2-----------|- 
E|--------------------|--------------7-5-4-|-

G|--------------------|--------------------|- 
D|----------2g--------|-2g-------2g--4-2---|-
A|----2g--2h----2-3-4-|----2g--2---------4-|- 
E|-0g-----------------|--------------------|-

G|--------------------|--------------------|-
D|--------------------|--------------------|- 
A|--------------------|--------------------|-
E|-5g-0g--0-5g--0-3-4-|-5g-0g--0-5g--7-5-4-|-

G|--------------------|--------------------|- 
D|----------2g--------|-2g-------2g--------|-
A|----2g--2h----2-4-2-|----2g--2-----------|- 
E|-0g-----------------|--------------4-5-6-|-

G|--------------------|--------------------|-
D|--------------------|--------------------|- 
A|-2g-------2g------2-|--------------4-2---|-
E|----2g--2h----2-3---|-5g-0g--0-5g------5-|-

G|--------------------|--------------------|- 
D|-2g-------2g--------|-2g-------2g--------|-
A|----2g--2h----2-4-2-|----2g--2-----2-4-2-|- 
E|--------------------|--------------------|-

Verse3: 02:46
G|--------------------|--------------------|- 
D|-2g-------2g--------|-2g-------2g--------|-
A|----2g--2h----2-4-2-|----2g--2-----------|- 
E|--------------------|--------------7-5-4-|-
If there ain't no change in the weather
Lord, there ain't no change in me

G|--------------------|--------------------|- 
D|----------2g--------|-2g-------2g--4-2---|-
A|----2g--2h----2-3-4-|----2g--2---------4-|- 
E|-0g-----------------|--------------------|-

G|--------------------|--------------------|-
D|--------------------|--------------------|- 
A|--------------------|--------------------|-
E|-5g-0g--0-5g--4-5-7-|-5g-0g--0-5g--7-5-4-|-
If there ain't no change in the weather
Lord, there ain't no change in me

G|--------------------|--------------------|- 
D|----------2g--------|-2g-------2g--------|-
A|----2g--2h----2-4-2-|----2g--2-----------|- 
E|-0g-----------------|--------------4-5-6-|-

G|--------------------|--------------------|-
D|--------------------|--------------------|- 
A|-2g-------2g------2-|--------------4-2---|-
E|----2g--2h----2-3---|-5g-0g--0-5g------5-|-
I ain't hidin' from nobody
Ain't nobody hidin' from me

G|--------------------|--------------------|- 
D|-2g-------2g--------|-2g-------2g--------|-
A|----2g--2h----2-4-2-|----2g--2-----2-4-2-|- 
E|--------------------|--------------------|-

Verse4:03:24
G|--------------------|--------------------|- 
D|-2g-------2g--------|-2g-------2g--------|-
A|----2g--2h----2-4-2-|----2g--2-----------|- 
E|--------------------|--------------7-5-4-|-
Well, they call me the breeze
I keep rollin' down the road
G|--------------------|--------------------|- 
D|----------2g--------|-2g-------2g--4-2---|-
A|----2g--2h----2-3-4-|----2g--2---------4-|- 
E|-0g-----------------|--------------------|-

G|--------------------|--------------------|-
D|--------------------|--------------------|- 
A|--------------------|--------------------|-
E|-5g-0g--0-5g--4-5-7-|-5g-0g--0-5g--7-5-4-|-
Yeah, they call me the breeze
I keep rollin' down the road

G|--------------------|--------------------|- 
D|----------2g--------|-2g-------2g--------|-
A|----2g--2h----2-4-2-|----2g--2-----------|- 
E|-0g-----------------|--------------4-5-6-|-

G|--------------------|--------------------|-
D|--------------------|--------------------|- 
A|-2g-------2g------2-|--------------4-2---|-
E|----2g--2h----2-3---|-5g-0g--0-5g------5-|-
I ain't got me nobody
I ain't carry no heavy load

G|--------------------|--------------------|- 
D|-2g-------2g--------|-2g-------2g--------|-
A|----2g--2h----2-4-2-|----2g--2-----2-4-2-|- 
E|--------------------|--------------------|-


Instrumental(2)/Outro: 04:01 (JJ Cale playing)
G|--------------------|--------------------|- 
D|-2g-------2g--------|-2g-------2g--------|-
A|----2g--2h----2-4-2-|----2g--2-----------|- 
E|--------------------|--------------7-5-4-|-

G|--------------------|--------------------|- 
D|----------2g--------|-2g-------2g--4-2---|-
A|----2g--2h----2-3-4-|----2g--2---------4-|- 
E|-0g-----------------|--------------------|-

G|--------------------|--------------------|-
D|--------------------|--------------------|- 
A|--------------------|--------------------|-
E|-5g-0g--0-5g--4-5-7-|-5g-0g--0-5g--7-5-4-|-

G|--------------------|--------------------|- 
D|----------2g--------|-2g-------2g--------|-
A|----2g--2h----2-4-2-|----2g--2-----------|- 
E|-0g-----------------|--------------4-5-6-|-

G|--------------------|--------------------|-
D|--------------------|--------------------|- 
A|-2g-------2g------2-|--------------4-2---|-
E|----2g--2h----2-3---|-5g-0g--0-5g------5-|-

G|--------------------|--------------------|- 
D|--------------------|--------------------|-
A|--------------------|--------------------|- 
E|-0g---4--5--6--7----|-0g~~~~-------------|-

End: 05:05



--------------------------------------------------------------------------------
Tablature Legend ----------------  
| S  slap 
| P  pop 
| x  mute note
| .  full stop
| /  slide up 
| \  slide down
| h  hammer-on 
| p  pull-off 
| g  grace note 
| ~  vibrato 
| ^  brush up
Добавлено: 20.03.2016
Другие материалы по этой песне:
  • Аккорды и текст

Страница создана 20.03.2016
http://primanota.ru/clapton-eric/call-me-breeze-live-chords.htm
Привет, Гость.
Предлагаем пройти революционный курс по гитаре.
Подарок от PrimaNota.Ru, забирай!