PrimaNota.ru - самый крупный в мире бесплатный архив песенных текстов, аккордов, табулатур и нот


Clapton, Eric - Bad Love 5-string - бас-таба, видео

Регистрация Запомнить меня
Войти через:  Facebook Google Twitter Vk Yandex Mail.ru

Clapton, Eric - Bad Love 5-string - бас-таба, видео

Печатать
Просмотров: 114
Уроки эстрадного вокала в Санкт-Петербурге
Basstab by Jan Bjorklund, Finland; 
jani_bjorklund@yahoo.se 
You are welcome to request for basstabs!
Bienvenidos a pedirme transcripciones para el bajo!

TablEdited by Jan Bjorklund
Tuning : B E A D G 	Time Signature: 4/4

 

 |       |       |       |        |       |       |       |        
|--------------------------------|--------------------------------|
|--------------------------------|--------------------------------|
|-----   intro without bass   ---|------------------------3---5---|
|--------------------------------|--------------------------------|
|--------------------------------|--------------------------------|

 |       |       |       |        |       |       |       |        
|2-----5-------------------------|--------------------------------|
|------------5-------------------|3-----5-----3-------------------|
|----------------------------2-3-|------------------------3---5---|
|--------------------------------|--------------------------------|
|--------------------------------|--------------------------------|

 |       |       |       |        |       |       |       |        
|2-----5-----7-------------------|--------------------------------|
|----------------5-------3---3---|--------------------------------|
|--------------------------------|------------------------5---5---|
|--------------------------------|--------------------------------|
|--------------------------------|--------------------------------|

 |       |       |       |        |       |       |       |        
|7-----------5-------------------|----------------------------5---|
|--------------------------------|5-----------5---5---5---7-------|
|--------------------------------|--------------------------------|
|--------------------------------|--------------------------------|
|--------------------------------|--------------------------------|

 |       |       |       |        |       |       |       |        
|7-----------5-------------------|--------------------------------|
|--------------------------------|5-----------5---5---5-----------|
|--------------------------------|------------------------8---7---|
|--------------------------------|--------------------------------|
|--------------------------------|--------------------------------|

 |       |       |       |        |       |       |       |        
|------------5-------------------|--------------------------------|
|--------------------------------|5-----------5---5---------------|
|5-------------------------------|--------------------------------|
|--------------------------------|--------------------------------|
|--------------------------------|--------------------------------|

 |       |       |       |        |       |       |       |        
|------------5-------------------|--------------------------------|
|--------5-----------5---7---8---|--------------------------------|
|5---8---------------------------|--------------------------------|
|--------------------------------|--------------------------------|
|--------------------------------|--------------------------------|

 |   Oh what a feeling I get..    |       |       |       |        
|--------------------------------|--------------------------------|
|--------------------------------|--------------------------------|
|2-----------2---2---------------|--------------------------------|
|--------------------------------|0-----------0---0-------0-------|
|----------------------------3---|--------------------0-----------|

 |       |       |       |        |       |       |       |        
|--------------------------------|--------------------------------|
|--------------------------------|--------------------------------|
|0-----------0---0---------------|0-----------0---0---------------|
|--------------------------------|--------------------------------|
|--------------------------------|--------------------------------|

 |       |       |       |        |       |       |       |        
|--------------------------------|--------------------------------|
|--------------------------------|--------------------------------|
|2-----------2---2-------4-------|--------------------------------|
|--------------------------------|0-----------0---0-------0-------|
|----------------------------3---|--------------------0-----------|

 |       |       |       |        |       |       |       |        
|--------------------------------|--------------------------------|
|--------------------------------|--------------------------------|
|0-----------0---0---------------|0-----------0---0---------------|
|--------------------------------|--------------------------------|
|--------------------------------|--------------------------------|

 |       |       |       |        |       |       |       |        
|--------------------------------|--------------------------------|
|--------------------------------|--------------------------------|
|1-----------3-----------1-------|0-----------1-------------------|
|--------------------------------|--------------------------------|
|--------------------------------|--------------------------------|


Transcribe! 5.2 transcription http://www.seventhstring.demon.co.uk/
Created with TablEdit http://www.tabledit.com/


     
Добавлено: 17.06.2013
Другие материалы по этой песне:
  • Аккорды и текст

Страница создана 17.06.2013
http://primanota.ru/clapton-eric/bad-love-5-string-chords.htm
Привет, Гость.
Предлагаем пройти революционный курс по гитаре.
Подарок от PrimaNota.Ru, забирай!