PrimaNota.ru - самый крупный в мире бесплатный архив песенных текстов, аккордов, табулатур и нот


Clap Clap Riot - So You Say - таба, видео

Регистрация Запомнить меня
Войти через:  Facebook Google Twitter Vk Yandex Mail.ru

Clap Clap Riot - So You Say - таба, видео

Печатать
Просмотров: 111
-------------------------------------------------------------------------------
                             Clap Clap Riot - So You Say
-------------------------------------------------------------------------------
Tabbed by: aucklandguitar

www.clapclapriot.com

Tuning: EADGbe (Standard)

INTRO:
e|---------------------------------------------------------------------------|
B|---------------------------------------------------------------------------|
G|---------------------------------------------------------------------------|
D|-------4-----6-----9-7-6---------------------------------------------------|
A|----0-----0-----0----------------------------------------------------------|
E|----------------------------0~~~-------------------------------------------|

VERSE:
e|--5555555555555555-12121212121212121212121212121212------------------------|
B|--5555555555555555-12121212121212121212121212121212------------------------|
G|---------------------------------------------------------------------------|
D|---------------------------------------------------------------------------|
A|---------------------------------------------------------------------------|
E|---------------------------------------------------------------------------|

PRE-CHORUS:
e|---------------------------------------------------------------------------|
B|---------------------------------------------------------------------------|
G|---------------------------------------------------------------------------|
D|--2222222222222222---------------------------------------------------------|
A|--00000000000000002222222222222222-----------------------------------------|
E|------------------0000000000000000--(all palm-muted)-----------------------|

CHORUS:
e|---------------------------------------------------------------------------|
B|---------------------------------------------------------------------------|
G|----------------------99999999/44444444------------------------------------|
D|--7777777774-6-9-7-6--xxxxxxxx/xxxxxxxx------------------------------------|
A|--00000000000000-0-0--77777777/22222222------------------------------------|
E|----------------------00000000/xxxxxxxx------------------------------------|

BRIDGE:
e|---------------------------------------------------------------------------|
B|---------------------------------------------------------------------------|
G|---------------------------------------------------------------------------|
D|---------------------------------------------------------------------------|
A|---------------------------------------------------------------------------|
E|-55555555555555550000000000000000------------------------------------------|


AMaj                    
Mamas in the kitchen aha
EMaj                                 
Mama likes to think shes a star
AMaj
Sitting back and smoking cigars
EMaj
But Mamas in the kitchen aha

So you say you say

AMaj                    
But Mama likes to think shes a star
EMaj                                 
Judge her by her clothes and her car
AMaj
She says dont you want to be like Mama
EMaj
But know shes on the kitchen she just knows what she wants

            AMaj
So you say you say you say what you should
               EMaj
And you do you do you do what youre told
            AMaj
So you say you say you say what you should
               EMaj
And you do you do you do what youre told

             AMaj                EMaj
So you say so you say
             AMaj                EMaj
So you say so you say

AMaj
And I can see just what you want
EMaj
You want to be the one to watch
AMaj
And I can see just what you want
EMaj
You want to be the one to watch

             AMaj                EMaj
So you say so you say
             AMaj                EMaj
So you say so you say

(AMaj played as a barre chord on the 5th fret)

************************************

| /   slide up
| \   slide down
| h   hammer-on
| p   pull-off
| ~   vibrato
| +   harmonic
| x   Mute note
| b   Bend
| pb  Pre-bend
| br  Bend release
| pbr Pre-bend release
| brb Bend release bend

************************************
Добавлено: 21.08.2013
Другие материалы по этой песне:
  • Аккорды и текст

Страница создана 06.07.2013
http://primanota.ru/clap-clap-riot/so-you-say-chords.htm
Привет, Гость.
Предлагаем пройти революционный курс по гитаре.
Подарок от PrimaNota.Ru, забирай!