PrimaNota.ru - самый крупный в мире бесплатный архив песенных текстов, аккордов, табулатур и нот


Clan Of Xymox - A Day - текст песни, таба, видео

Регистрация Запомнить меня
Войти через:  Facebook Google Twitter Vk Yandex Mail.ru

Clan Of Xymox - A Day - текст песни, таба, видео

Печатать
Просмотров: 116
Уроки эстрадного вокала в Санкт-Петербурге
-------------------------------------------------------------------------------
                             A Day - Clan of Xymox
-------------------------------------------------------------------------------
Tabbed by: Silpaca
E-mail: sil1.veenstra@hotmail.nl

I believe this is the only tab on the internet of this song! The song comes from Xymox's 1985 debut-
album "Clan of Xymox"

Ronny Moorings who sings and plays the guitair on this track uses all sorts off effects on his guitair 
that's how he gets his sound. 


Listen to the song to get the timing right and be sure to play each note and then mute them instead of letting
them ring. (Except for the 17-19's)

(song duration 6:40)

Tuning: E-A-D-G-B-E

 (starts at 0:52)

e|-13-13----13-13----------13----13-13----------13----13-13----------13------|
B|----------------15-15-15-------------15-15-15-------------15-15-15---------|
G|---------------------------------------------------------------------------|
D|---------------------------------------------------------------------------|
A|---------------------------------------------------------------------------|
E|---------------------------------------------------------------------------|

e|-11-10-11-13---11-10--15--15--11-10--13--13\--17--17--17--17--17-17--------|
B|-----------------------------------------------19--19--19--19--19----------|
G|---------------------------------------------------------------------------|
D|---------------------------------------------------------------------------|
A|---------------------------------------------------------------------------|
E|---------------------------------------------------------------------------|

e|-13-13----13-13----------13----13-13----------13----13-13----------13------|
B|----------------15-15-15-------------15-15-15-------------15-15-15---------|
G|---------------------------------------------------------------------------|
D|---------------------------------------------------------------------------|
A|---------------------------------------------------------------------------|
E|---------------------------------------------------------------------------|

e|-13-13----------13----13-13----------13----13-13----------13----13-13----------13----|
B|-------15-15-15-------------15-15-15-------------15-15-15-------------15-15-15-------|
G|-------------------------------------------------------------------------------------|
D|-------------------------------------------------------------------------------------|
A|-------------------------------------------------------------------------------------|
E|-------------------------------------------------------------------------------------|

e|-11-10-11-13---11-10--15--15--11-10--13--13\--17--17--17--17--17-17--------|
B|-----------------------------------------------19--19--19--19--19----------|
G|---------------------------------------------------------------------------|
D|---------------------------------------------------------------------------|
A|---------------------------------------------------------------------------|
E|---------------------------------------------------------------------------|

  (3:41)

e|-13-13----13-13----------13----13-13----------13----13-13----------13------|
B|----------------15-15-15-------------15-15-15-------------15-15-15---------|
G|---------------------------------------------------------------------------|
D|---------------------------------------------------------------------------|
A|---------------------------------------------------------------------------|
E|---------------------------------------------------------------------------|

e|-11-10-11-13---11-10--15--15--11-10--13--13\--17--17--17--17--17-17--------|
B|-----------------------------------------------19--19--19--19--19----------|
G|---------------------------------------------------------------------------|
D|---------------------------------------------------------------------------|
A|---------------------------------------------------------------------------|
E|---------------------------------------------------------------------------|

And that's it! I hope you have fun with it!

♪♪♪♪♪♪♪♪♪♪♪♪♪♪♪♪♪♪♪♪♪♪♪♪♪♪♪♪♪♪♪♪♪♪♪♪

The "\" means that you'll have to slide it down from the 13th to the 17th fret!

♪♪♪♪♪♪♪♪♪♪♪♪♪♪♪♪♪♪♪♪♪♪♪♪♪♪♪♪♪♪♪♪♪♪♪♪
Добавлено: 22.11.2015
Другие материалы по этой песне:
  • Аккорды и текст

Страница создана 23.04.2012
http://primanota.ru/clan-of-xymox/a-day-chords.htm
Привет, Гость.
Предлагаем пройти революционный курс по гитаре.
Подарок от PrimaNota.Ru, забирай!