PrimaNota.ru - самый крупный в мире бесплатный архив песенных текстов, аккордов, табулатур и нот


Cky - Way You Lived - текст песни, таба, видео

Регистрация Запомнить меня
Войти через:  Facebook Google Twitter Vk Yandex Mail.ru

Cky - Way You Lived - текст песни, таба, видео

Печатать
Просмотров: 211
-------------------------------------------------------------------------------
                             The Way You Lived - CKY
-------------------------------------------------------------------------------
Tabbed by: kima
Email:

Tuning:DGCFAD
              I'm still workin' on it, but here's how I play it for now !

D|---------------------------------!------------------------------------------------|
A|-7--7----------------------------!------------------------------------------------|
F|-4--4----------------------------!------------------------------------------------|
C|------------------6-/-7------7-7-!------------------------------------------------|
G|------------2-5---4-/-5----7-----!-5-5-5--5-5-7-7--7--5------------/9--7--5-------|
D|--------2-5----------------------!-3-3-3--3-3-5-5--------9--5--7------------------|

D|-------------------------------------------------------------------------------!-----------|
A|-------------------------------------------------------------------------------!-----------|
F|--------------------------------------------------6----------------------------!-----------|
C|----------------------------4---------------7---------7------------------------!-----------|
G|---4----7--4-----4------5------5---5---------------------------------/9--7--5--!-----------|
D|-5---5--------5-------3---3------3-------5-----5----------5---7/---------------!-----------|

D|---------------------------------------------------------------------------|
A|---------------------------------------------------------------------------|
F|---------------------------------------------------------------------------|
C|---------------------------------------4p0---2p0---------------------------|
G|---------------------------------------------------------------------------|
D|--5--7---7-7-7---5---2--2--3---3-3-2---------------------------------------|

D|--------------------------------------------------------------------------------|
A|--------------------------------------------------------------------------------|
F|-----------------2---------------------------------------2----------------------|
C|--------4-----------------4--------4-----------4-------------------4p0---2p0----|
G|--0--2-----2--5-----0--2-----2--5--------0--2-----2--5-------0--2---------------|
D|--------------------------------------------------------------------------------|
Добавлено: 28.04.2012
Другие материалы по этой песне:

Страница создана 05.03.2012
http://primanota.ru/cky/the-way-you-lived-chords.htm
Привет, Гость.
Предлагаем пройти революционный курс по гитаре.
Подарок от PrimaNota.Ru, забирай!