PrimaNota.ru - самый крупный в мире бесплатный архив песенных текстов, аккордов, табулатур и нот


Cky - The Afterworld - текст песни, таба, видео

Регистрация Запомнить меня
Войти через:  Facebook Google Twitter Vk Yandex Mail.ru

Cky - The Afterworld - текст песни, таба, видео

Печатать
Просмотров: 189
Уроки эстрадного вокала в Санкт-Петербурге
LISTEN TO THE SONG FOR THE TIMING AND VARIATION OF THE NOTES
Just Tabbed One Guitar
Effects - Distortion, Octaver, & Clean Tone
youtube.com/AliveInTheAfterworld

Flanger + Octave Intro:
D|--------------------|
A|--------------------|
F|-----5-6---8---8/9--|
C|-6-6----------------|
G|--------------------|
D|---------4---4------|

Chads Lead (Based On Live)(No Octave)
D|-------------------------------------------------------------------|
A|-/10~-\9-9~-\7-7~-5/7-7/9-9/10~-\9-9~-\7-7~-5/7-7/9-9/14~-\12-12~--|
F|-------------------------------------------------------------------|
C|-------------------------------------------------------------------|
G|-------------------------------------------------------------------|
D|-------------------------------------------------------------------|

(Continued)
D|-----------------------------|
A|-\10-10~-\9-9~-/7-7~~-7/9~~--|
F|-----------------------------|
C|-----------------------------|
G|-----------------------------|
D|-----------------------------|


Main Riff:
D|--------------------------------------------|
A|--------------------------------------------|
F|-----------------------------------------9--|
C|----------------------------11--------9-----|
G|-------------------------------11-7---------|
D|--9--9--9--9--9--9--9--9--9---------0---0---|

D|-------------------------------------|
A|-------------------------------------|
F|-------------------------------------|
C|-------------------------------------|
G|-------------------7-9-9/11---9---7--|
D|-7-7-7-7-7-7-7-7-7----------7---7----|

D|------------------------------------|
A|------------------------------------|
F|---------------------------------9--|
C|-------------------11--------9------|
G|----------------------11-7----------|
D|-5-5-5-5-5-5-5-5-5---------0---0----|

D|--------------------------------------|
A|--------------------------------------|
F|-----------------------5-6---8---8/9--|
C|---------------------6----------------|
G|-----------7-9-9/11-------------------|
D|-7-7-7-7-7----------4------4---4------|

(In The End, Start Again...) (Clean Tone, No Octave)
D|-------------------------------------------------------------------------|
A|-------------------------------------------------------------------------|
F|--------------------8-8-9-9-11-11----16-16-13-13---------9-9-11-11-13-13-|
C|------------------------------------------------14-14--------------------|
G|-------------------------------------------------------------------------|
D|-0-0-0-0-0-0-0-0-0-0--------------0-0-----------------0-0----------------|
Tremolo Pic Entire Section

D|----------------------------------------------------------------|
A|----------------------------------------------------------------|
F|----------------------------------------------------------------|
C|-------------6-6-----6-6-----6-6-----7-7-----7-7----7-7----7-7--|
G|-4-4-4-4-4-4-----4-4-----4-4------------------------------------|
D|---------------------------------5-5-----5-5-----5-5---5-5------|
Tremolo Pick Entire Section

|---------(No Octave)----------|
D|-----------|-----------------|
A|-----------|-----------------|
F|--------8--|-----------------|
C|-11--6--X--|------9---9h11---|
G|--9--4--6--|-9h11------------|
D|-----------|--------9------9-|

(Octave Kicks Back In)
D|-----------------------------------------------|
A|-----------------------------------------------|
F|-----------------------------------------------|
C|---------------9---9h11---9h11-9---------------|
G|----------9h11-------------------11---9-7---7--|
D|--9--9--9--------9------9-----------9-----9----|

D|-------------------------------------|
A|-------------------------------------|
F|-------------------------------------|
C|-------------------------------------|
G|-------7-9---9/11---------6-9--------|
D|-0-0-0-----0------0-0-0-0-----7-8-9--|
Добавлено: 23.06.2012
Другие материалы по этой песне:

Страница создана 23.06.2012
http://primanota.ru/cky/the-afterworld-chords.htm
Привет, Гость.
Предлагаем пройти революционный курс по гитаре.
Подарок от PrimaNota.Ru, забирай!