PrimaNota.ru - самый крупный в мире бесплатный архив песенных текстов, аккордов, табулатур и нот


Cky - Infiltrate Destroy Rebuild - таба, бас-таба, видео

Регистрация Запомнить меня
Войти через:  Facebook Google Twitter Vk Yandex Mail.ru

Cky - Infiltrate Destroy Rebuild - таба, бас-таба, видео

Печатать
Просмотров: 80
Cky
Camp Kill Yourself

Tabbed by: Donald Lawson

All songs by: Deron Miller, Chad Ginsburg, Jess Margera
Vocals: Deron Miller and Chad Ginsburg
Guitars: Deron Miller and Chad Ginsburg
Bass: Vern Zaborowski
Drums: Jess Margera

Better Cky sound.
D'addario strings 10's
Metal master or Danelectro Black Licorice foot pedal



========Escape From Hellview======
Tuning: Whole Step Down DGCFAD
intro/Chorus:
1|-------------------------------------------------------------------------|
2|-------------------------------------------------------------------------|
3|--------------------------------------------------7---9-0-----7-8--------|
4|------9---------9-10--------5-4-7-5---5-9-0-7-9-0---0-----9-0-------9----|
5|--------7---------------------------7------------------------------6--7--|
6|--0-0------0-0---------0-0-----------------------------------------------|

Verse
1|-----------------------------------------------------------------------|
2|-----------------------------------------------------------------------|
3|----12-11-12-11------9-11----11-12----12-11-12-11------9-11----11-12---|
4|---------------12-----------------12----------------10-----------------|
5|-----------------------------------------------------------------------|
6|-0----------------8--------7--------0-------------8----------7---------|

1|------------------------------------------------|
2|------------------------------------------------|
3|---12-16--14-12-14-12--14-16------12-11---12-11-|
4|------------------------------------------------|
5|------------------------------------------------|
6|-0-----------------------------10-------9-------|

Pre-Chorus:
1|--------------------------------------------------------|
2|--------------------------------------------------------|
3|--------------------4-2---------------------------------|
4|-----------------------5-2--5-55-55-55-5-4-4444-77------|
5|-2-22-22-22-2-22-22---------3-33-33-33-3-2-2222-55-55---|
6|-0-00-00-00-0-00-00--------------------------------33---|

1|--------------------------------------------------|
2|--------------------------------------------------|
3|--------------------4-2---------------------------|
4|-----------------------5-2--5-55-55-55-5-4-4444-7-|
5|-2-22-22-22-2-22-22---------3-33-33-33-3-2-2222-5-|
6|-0-00-00-00-0-00-00-------------------------------|

Bridge:
1|----------------------------------------------------------------------|
2|----------------------------------------------------------------------|
3|-------10----------------------------------10-----------------------8-|
4|-----10-------10-11-----6-5-8-6---6------10-------10-11-----6-5-8-6-8-|
5|-8-8------8-8-------8-8---------8----8-8------8-8-------8-8---------6-|
6|----------------------------------------------------------------------|




======Flesh Into Gear=====
Tuning: Whole Step Down DGCFAD
Intro:
1|---------------------------------------------------------------------|
2|---------------------------------------------------------------------|
3|---------------------------------------------------------------------|
4|-----------------------------------7-7-7-7--7--7-7--7-5--------------|
5|-3--3-3--3--3-3-----------------3--5-5-5-5--5--5-5------5-5-----8-7--|
6|-1--1-1--1--1-1---5-1-3-1-3-5-------------------------------5-8------|

Chorus:
1|------------------------------------------|
2|------------------------------------------|
3|------------------------------------------|
4|-8-8-8-8-8-8-10-8---7-7-7-7-7-7--5-3-7-3--|
5|-8-8-8-8-8-8-10-8---7-7-7-7-7-7--5-3-7-3--|
6|-6-6-6-6-6-6--8-6---5-5-5-5-5-5--3-1-5-1--|

Solo/Bridge
1|-----------------------------------------------------------------|
2|-----------------------------------------------------------------|
3|---------------------------------------------------------5-7-----|
4|-7-5--7--7---7p5---5----5-7-5-----5--5---7p5---5-----5-7---------|
5|------5--5-------8----8-------8---3--3-------8-----8-------------|
6|-----------------------------------------------------------------|

1|-----------------------------------------------------------------|
2|-----------------------------------------------------------------|
3|-----------------------------------------------------------------|
4|-7--7---7-5---5----5-7-5-----5--5---------------------3-2--------|
5|-5--5-------8----8-------8---3--3-----3-5-3-------3--------------|
6|------------------------------------5-------5-3-1----------------|


1|-----------------------------------------------------------------|
2|-----------------------------------------------------------------|
3|---------------------------------------------------5-7-----------|
4|--------7-5---5----5-7-5-----5--5---7-5---5----5-7---------------|
5|-3--3-------8----8-------8---3--3-------8----8-------------------|
5|-1--1------------------------------------------------------------|

1|-----------------------------------------------------------------|
2|-----------------------------------------------------------------|
3|-----------------------------------------------------5-7---------|
4|--7--7---7-5---5----5-7-5-----5--5---7-5---5-----5-7-------------|
5|--5--5-------8----8-------8---3--3-------8-----8-----------------|
6|-----------------------------------------------------------------|

1|-----------------------------------------------------------------|
2|-----------------------------------------------------------------|
3|-----------------------------------------------------------------|
4|-7--7---7-5---5----5-7-5-----5--5---------------------3-2--------|
5|-5--5-------8----8-------8---3--3-----3-5-3-------3--------------|
6|------------------------------------5-------5-3-1----------------|

1|-----------------------------------------------------------------|
2|-----------------------------------------------------------------|
3|---------------------------------------------------5-7-----------|
4|--------7-5---5----5-7-5-----5--5---7-5---5----5-7---------------|
5|-3--3-------8----8-------8---3--3-------8----8-------------------|
6|-1--1------------------------------------------------------------|

1|-----------------------------------------------------------------|
2|-----------------------------------------------------------------|
3|-----------------------------------------------------5-7~~~~-----|
4|--7--7---7-5---5----5-7-5-----5--5---7-5---5-----5-7-------------|
5|--5--5-------8----8-------8---3--3-------8-----8-----------------|
6|-----------------------------------------------------------------|

solo end
1|-------------------------|
2|-------------------------|
3|-5-----------------------|
4|---7~-----5~-------------|
5|--------8------5-3-------|
6|-------------------5-3---|




======Sink Into The Underground=======
Tuning:Whole Step Down DGCFAD
intro:
1|-------------------------------------------------------------------------|
2|-------------------------------------------------------------------------|
3|-------------------------------------------------------------------------|
4|-------------------------------------------------------------------------|
5|----------6-6--9-9--7-7-6-6--4-2-4/6-2----/6-6-4-4-2-2------------/6-4-2-|
6|-4-4--7-7-----------------------------2-2---------------4-4-2-2--4-------|

Verse:
1|-----------------|
2|-----------------|
3|-----------------|
4|--6--6----4--4---|
5|--6--6----4--4---|
6|--4--4----2--2---|

Pre-Chorus
1|-------------------------------------------------------------------|
2|-------------------------------------------------------------------|
3|-------------------------------------------------------------------|
4|--9----9-8-6-8-8-11-11--13--13-------------------------------------|
5|--7----7-6-4-6-6--9--9--11--11-------------------------------------|
6|-------------------------------------------------------------------|x2

Chorus:
1|-------------------------------------------------------------------|
2|-------------------------------------------------------------------|
3|-------------------------------------------------------------------|
4|-------------------------------------------------------------------|
5|-----2h4-6--------2-6-7-6-2----------------------------------------|
6|4--4-------4---4-------------0-2---0-2-0-2--0-2---0-2-0-2-0-2------|




=======Attached at the Hip========
Tuning: Whole Step Down DGCFAD
Intro:
1|-------------------------------------------------------------------------|
2|-------------------------------------------------------------------------|
3|--5-5-5-5-5-5-5-5---------------------5-5-5-5-5-5-5-5--------------------|
4|--5-5-5-5-5-5-5-5----------3----------5-5-5-5-5-5-5-5--------------------|
5|--3-3-3-3-3-3-3-3------------6-3-6/8--3-3-3-3-3-3-3-3----------6-6---6/8-|
6|------------------3-6-3-6------------------------------3-6-3-1-----6-----|

Intro Guitar 2
1|--------------------------------------------------------------------------
2|--------------------------------------------------------------------------
3|--------------------------------------------------------------------------
4|-------------------------------15-13-10-13-15-----------------------------
5|-101010101010101010-10-13-10-13---------------101010101010101010-10-13-10-
6|-8-8-8-8-8-8-8-8-8----------------------------8-8-8-8-8-8-8-8-8-----------

1|--------------------|
2|--------------------|
3|--------------------|
4|-----13-13-10-13-15-|
5|--------------------|
6|-13-----------------|

verse intro both guitars
1|-------|
2|-------|
3|-------|
4|-------|
5|-------|
6|-2-3-^-|

Verse Both guitars:
1|------------------------------------------------------------------|
2|------------------------------------------------------------------|
3|-55--55-55--------------------------------------------------------|
4|-55--55-55-----88888888-----88888888-----88888888-----88888888----|
5|-33--33-33--x4-66666666-----66666666-----66666666-----66666666----|
6|-----------------------10-8---------10-8---------10-8-------------|

Chorus guitar1
1|-----------------------------------|
2|-----------------------------------|
3|-555-888-----------8888-7777-------|
4|-555-888-888-555---8888-7777-------|
5|-333-666-888-555---6666-5555-------|
6|---------666-333-------------------|

Chorus guitar 2
1|-----------------------------------------|
2|-----------------------------------------|
3|---------888------121212---8888-7777-----|
4|-101010--888-888--121212---8888-7777-----|
5|-101010--666-888--101010---6666-5555-----|
6|-8-8-8-------666-------------------------|

Outro:
1|--------|
2|--------|
3|--------|
4|--------|
5|--------|
6|-2-3-^-P|




=======Frenetic Amnesic=========
Tuning: Whole Step Down DGCFAD
Intro/verses:
1|-------------------------------------------------------------------------|
2|-------------------------------------------------------------------------|
3|-------------------------------------------------------------------------|
4|-------------------------------------------------------------------------|
5|--0-0-0-0-7--0-0-0-0-7--0-0-7-5-3-3---0-0-0-0-7--0-0-0-0-7--0-0-7-5-3-3--|
6|-------------------------------------------------------------------------|

1|-------------------------------------------------------------------------|
2|-------------------------------------------------------------------------|
3|-------------------------------------------------------------------------|
4|-------------------------------------------------------------------------|
5|----------5----------5------5-7-5-3------------5----------5----------5-3-|
6|--3-3-3-3----3-3-3-3----3-3------------1-1-1-1----1-1-1-1----1-1-1-1-----|

1|------------------------------------------------------------------------|
2|------------------------------------------------------------------------|
3|------------7----------------------5-----777777-5-7---9999-9-10-9-7-5---|
4|-----5----5-------77777777--333333-5-5---777777-5-7---9999-9-10-9-7-5---|
5|---3----7---------77777777--333333-3-5---555555-3-5---7777-7--8-7-5-3---|
6|-5----------------55555555--111111---3----------------------------------|

Bridge:
1|----------------------------------------------------------------------|
2|----------------------------------------------------------------------|
3|----------------------------------------------------------------------|
4|---------------7--------5------------------------10------9-7-5--------|
5|--------7-------------------3------------10---------------------------|
6|-5-5--5---5--5---5---5------------8-8--8----8--8----8--8--------------|




======Shock and Terror=======
Tuning: Whole Step Down DGCFAD
Intro:
1|-------------------------------------------------------------------------|
2|-------------------------------------------------------------------------|
3|-------------------------------------------------------------------------|
4|-8-----------6-------------------------6-----------------------6---------|
5|-6-7-4-4-7/9--------------7-9-7---7/9-------------/9-7-7\4-7/9-----------|
6|---------------7-4-2-0----------9--------7-4-2-0------------------7-4-2-0|

1|---------------------------------------------|
2|---------------------------------------------|
3|---------------------------------------------|
4|-------------6------------999-666-101010-666-|
5|-7-9-7---7/9---------------------------------|
6|-------9-------7-4--8-4----------------------|

Verse: 4X's
1|---------------------------------------------------|
2|---------------------------------------------------|
3|--------------9----11-------------------9---11-----|
4|-11-11----------9----9-----11-11----------9---11---|
5|-------11-12---------------------11-12-------------|
6|---------------------------------------------------|

Chorus:4X's
1|--------------------------------------------------------|
2|--------------------------------------------------------|
3|--------------------------------------------------------|
4|--------/2-----------------------------------4-/6-4-2---|
5|-/4-2-4----4-2---2-4-2------2-2--2--2-------------------|
6|---------------4-------4--4-----------4-4-4-------------|




========Plastic Plan==========
Tuning:Whole Step Down DGCFAD
Intro/Verse/Chorus:
1|---------------------------------------------------|
2|---------------------------------------------------|
3|---------------------------------------------------|
4|------------------------------------------------4-2|
5|-77777777--/9-7---------------44444444-/5-4---2----|
6|-55555555-------9-7-5-7-/9-5--22222222------5------|

Post Verse:
1|-------------------------------------------------------------|
2|-------------------------------------------------------------|
3|-------------------------------------------------------------|
4|-------------------------------------------------------------|
5|-77777777--/9-7---------------44444444-/5-4---2-4--2-4--2----|
6|-55555555-------9-7-5-7-/9-5--22222222------5----------------|

Post Chorus:
1|-----------------------------------------------------------------------|
2|-----------------------------------------------------------------------|
3|-----------------------------------------------------------------------|
4|-----------------------------------------------------------------------|
5|-7777777---------4-444444444444444-55555555555-55-44-22-00-22-44-22222-|
6|-5555555-5-7-5-7---222222222222222-33333333333-------------------------|

Bridge:
1|------------------------------------------------------------------------|
2|------------------------------------------------------------------------|
3|------------------------------------------------------------------------|
4|------------------------------7-6---------------------------------------|
5|-----7-4------7-4------7-4--------7--------4-0-----4-0----5-4-0-2-4-2-4-|
6|-5-5------5-5------5-5------5----------2-2-----2-2------2---------------|

1|-------------------------------------------|
2|-------------------------------------------|
3|-------------------------------------------|
4|-------------------------------------------|
5|-555555555555-55-44-22----22-44-22222222---|
6|-333333333333----------55------------------|




========Inhuman Creation Station==========
Tuning:Whole Step Down DGCFAD
Intro
1|-----------------------------|
2|-----------------------------|
3|-----------------------------|
4|----5--7---------------------|
5|7-------5--------------------|
6|-----------7-5-0-0-0---0-0-0-|

1|-----------------------------|
2|-----------------------------|
3|-----------------------------|
4|----4--5-4-2p0---/9--7\5-4-5-|
5|5-------------2--------------|
6|-----------------------------|

Chorus:
1|------------------------------------------------------------------|
2|------------------------------------------------------------------|
3|-5-5-5-5-5-5-5-5-5-5-5-5-5-5-5-5--9-9-9-9-9-9-9-9-9-9-9-9-9-9-9-9-|
4|-5-5-5-5-5-5-5-5-5-5-5-5-5-5-5-5--9-9-9-9-9-9-9-9-9-9-9-9-9-9-9-9-|
5|-3-3-3-3-3-3-3-3-3-3-3-3-3-3-3-3--7-7-7-7-7-7-7-7-7-7-7-7-7-7-7-7-|
6|------------------------------------------------------------------|

1|-----------------------------------------------------------------|
2|-----------------------------------------------------------------|
3|-5-5-5-5-5-5-5-5-5-5-5-5-5-5-5-5--9-9-9-9-9-9-9-9-9-9-9-9--------|
4|-5-5-5-5-5-5-5-5-5-5-5-5-5-5-5-5--9-9-9-9-9-9-9-9-9-9-9-9------7-|
5|-3-3-3-3-3-3-3-3-3-3-3-3-3-3-3-3--7-7-7-7-7-7-7-7-7-7-7-7--5--5--|
6|----------------------------------------------------------3------|




========Sporadic Movement=======
Tuning: Whole Step Down DGCFAD
Intro/Verse:
1|----------------------------------------------------------------------|
2|----------------------------------------------------------------------|
3|-----------9-----8-----9-----8---------9-9-7-5-4----------------------|
4|---------7---7-7---7-7---7-7---------------------5-7-5----------------|
5|----------------------------------------------------------------------|
6|-5-8-5-3------------------------5-8-5-3-------------------------------|

Pre-Chorus
1|----------------------|----------------------|
2|----------------------|----------------------|
3|----------------------|----------------------|
4|--3-------------------|--3---5---------------|
5|--3-------------------|--3---5---------------|
6|--1-------------------|--1---3---------------|

Chorus:
1|--------------------------------------------------|
2|--------------------------------------------------|
3|--------------------------------------------------|
4|--------------------------------------------------|
5|------8888------8888-------7777-------5--3--------|
6|-5555------5555-------3333-------1111-------------|

outro:
1|--------------|
2|--------------|
3|--------------|
4|---7----5-----|
5|---7----5-----|
6|---5~~~~3~~~~-|




========Close Yet Far========
Tuning:
Intro/verse:
1|--------------------------------------------------------------|
2|--------------------------------------------------------------|
3|-0-----------2------------------------------------------------|
4|----2-----2-----0-----0---9--10—10/12\10---9-----0------------|
5|-------2-----------0-------------------------10---------------|
6|-0-----------2------------------------------------------------|

1|--------------------------------------------------------------|
2|--------------------------------------------------------------|
3|-0-----------2----------------------------------0-------------|
4|----2-----2-----0-----0---9--10—10/12\10---9------------------|
5|-------2-----------0-------------------------10---------------|
6|-0-----------2------------------------------------------------|

Chorus:
1|--------------------------------------------------------------|
2|--------------------------------------------------------------|
3|--------------------------------------------------------------|
4|-5-----------7------(9)-------9--10—10/12\10---9--------------|
5|-5-----------7------(9)--------------------------10-----------|
6|-3-----------5------(7)---------------------------------------|

1|--------------------------------------------------------------|
2|--------------------------------------------------------------|
3|--------------------------------------------------------------|
4|-9-----------7------(5)------9--10—10/12\10---9---------------|
5|-9-----------7------(5)-------------------------10------------|
6|-7-----------5------(3)---------------------------------------|

Outro:
1|--------------------------------------------------------------|
2|-0---------------/5-/5----------------------------------------|
3|----2--0------------------------------------------------------|
4|-----------5-4------------------------------------------------|
5|-2---------------/7-/7----------------------------------------|
6|--------------------------------------------------------------|


Thats all of it.. Comments or Questions AIM: Misfits3388
Добавлено: 21.07.2013
Другие материалы по этой песне:
  • Аккорды и текст

Страница создана 21.07.2013
http://primanota.ru/cky/infiltrate-destroy-rebuild-chords.htm
Привет, Гость.
Предлагаем пройти революционный курс по гитаре.
Подарок от PrimaNota.Ru, забирай!