PrimaNota.ru - самый крупный в мире бесплатный архив песенных текстов, аккордов, табулатур и нот


Cky - Genesis Instumental - таба, видео

Регистрация Запомнить меня
Войти через:  Facebook Google Twitter Vk Yandex Mail.ru

Cky - Genesis Instumental - таба, видео

Печатать
Просмотров: 66
"I'm Ryan Dunn. I'm about to hit some haggard backwoods crap" (c)

cKy [CAMP KILL yourseLF]
------------------------
GENESIS (INSTRUMENTAL) (track №2 from the Disengage the Simulator (Limited Edition Warped Tour e.p.))
Released by Volcom Entertainment 1 july 2000
--------------------------------------------
Guitar & Bass parts by Deron Miller
Lead guitar & Bass parts by Chad I Ginsburg
Drums part by Jess Margera
--------------------------
Guitar tab by Andrew A. Terexin (Russia/Moscow) [6.s8dashes@gmail.com]
Used: Epiphone Les Paul Studio with D'Addario 12-52 jazz steel strings,
Digitech RP-155, Line 6 Toneport GX Mk2, Guitar Rig 5 Player
------------------------------------------------------------
Tuning: E♭ Standart (D# G# C# F# A# D#)

1)
D#|-------------------------------------------|
A#|-------------------------------------------|
F#|-------------------------------------------|
C#|----------6---------6---------4---------4--|
G#|-------8b--------8b--------6b--------6b----|
D#|--6--6------6--6------4--4------4--4-------|
          ↑↓        ↑↓        ↑↓        ↑↓
2)
D#|---------------------------------------------------------|
A#|---------------------------------------------------------|
F#|---------------------------------------------------------|
C#|--3--------8---6-------4---3--------8---6----------------|
G#|----1---1/-------4---4-------1---1/-------4---(4\3)b-----|
D#|------4------4-----6-----1-----4------4-----6--------h4--|
     . . . .  . . . . . . . . . . . .  . . . . . 
3)
D#|-----------------------------------------------------|
A#|-----------------------------------------------------|
F#|-----------------------------------------------------|
C#|--3--------8---6-------4---3--------8---6------------|
G#|----1---1/-------4---4-------1---1/-------4---4-3----|
D#|------4------4-----6-----1-----4------4-----6-----4--|

4)
D#------------------------------------------------------------------|
A#|-----------------------------------------------------------------|
F#|-----------------------------------------------------------------|
C#|-----------------------------------------------------------------|
G#|----------4-4-4-6--------4-4-4-6---------4-4-4-6--------4-4-4-6--|
D#|--6-6-6-6----------6-6-6---------4-4-4-4----------4-4-4----------|

5)
D#|--------------------------------------------------------------|
A#|--------------------------------------------------------------|
F#|--------------------------------------------------------------|
C#|--------------------------------------------------------------|
G#|----------4-4-4-6--------4-4-4-6---------4-4-4-6-------8-6-4--|
D#|--6-6-6-6----------6-6-6---------4-4-4-4----------4-4---------|

6)
D#|-------------------------------------------------------------------|
A#|-------------------------------------------------------------------|
F#|-------------------------------------------------------------------|
C#|----------7-7-7-9--------10-----12----------7-7-7-9-------6-6-6-7--|
G#|--0-0-0-0----------8-8-8----8-8----\5-5-5-5---------7-7-7----------|
D#|-------------------------------------------------------------------|

7) Ending (Slide from the 3rd part)
D#|-------|
A#|-------|
F#|-------|
C#|-------|
G#|---8~--|
D#|--/6~--|
      .

Sequence:
1)x4
2)x2
3)x1
2)x1
4)x1
5)x1
4)x1
5)x1
2)x2
3)x1
2)x1
4)x1
5)x1
4)x1
5)x1
6)x4
1)x4
4)x1
5)x1
4)x1
5)x1
2)x2
3)x4
7)x1

SYMBOLS
-------
/ - slide up
\ - slide down
b - bend
h - hammer-on
x - muted string

SOME NOTES
----------
Amazing instrumental from the cKy's volume 2 & Dissengage the Simmulator Limited EP!
It's absolutly one of my favourite cKy tracks. It's a very very interesting riffs, very lot's of octaver and
very thoughtful-lazy mood. And of course it's very challenging to play))

Originaly this song written by Foreign Objects (early Deron & Jess Tech-Death metal project) as a 'Genesis
12/A' and recorded and released with original lyrics on a 2004's 'Universal Culture Shock/Undiscovered
Numbers & Colors' Foreign Objects limited double CD.
But I more like cKy version.

This tab is 100% correct. I wrote it on the basis of Deron Miller - Instructional Tab Video DVD.

2nd palm-muting riff actually the 3rd riff, but higher C# string sounds very quietly in this mix.
So, because of that you can play this also like:
D#|-------------------------------------------------------|
A#|-------------------------------------------------------|
F#|-------------------------------------------------------|
C#|-------------------------------------------------------|
G#|----------------4---4-------------------4---(4\3)b-----|
D#|--6-6-4-6-x-4-x---6---x-1-x-6-4-6-x-4-x---6--------h4--|
     . . . .   .   . . .   .   . . .   .   . .
It is just an alternative and easier way.

Thank you very much. Enjoy it! I hope this helps.
Добавлено: 02.06.2016
Другие материалы по этой песне:
  • Аккорды и текст

Страница создана 02.06.2016
http://primanota.ru/cky/genesis-instumental-chords.htm
Привет, Гость.
Предлагаем пройти революционный курс по гитаре.
Подарок от PrimaNota.Ru, забирай!