PrimaNota.ru - самый крупный в мире бесплатный архив песенных текстов, аккордов, табулатур и нот


Cky - Disengage The Stimulator - таба, бас-таба, видео

Регистрация Запомнить меня
Войти через:  Facebook Google Twitter Vk Yandex Mail.ru

Cky - Disengage The Stimulator - таба, бас-таба, видео

Печатать
Просмотров: 152
Song:Disengage The Simulator
Album:Infiltrate-Destroy-Rebuild
Artist:CKY
Genre:Alternative Metal
Year:2002
Tuning:Whole-Step Down (D,G,C,F,A,D)

Verse 1 x2
D-----------------------------|
A-----------------------------|
F-----------------------------|
C--------4---------4-----3----|
G-4444-4---44--4-4---4-2---4--|
D-2222-----22--2--------------|

Interlude 1 x1
D---------------------------------------|
A---------------------------------------|
F---------------------------------------|
C----44-66----66-88-----44-66----66-88--|
G-66-------44--------66-------44--------|
D---------------------------------------|

*Verse 2 x2

Interlude 2 x1
D----------------------------------|
A----------------------------------|
F----------------66-88----88-1010--|
C----44-66-88-88-------66----------|
G-66-------------------------------|
D----------------------------------|

*Verse 3 x2

Interlude 3 x1
D---------------------------------------|
A---------------------------------------|
F---------------------------------------|
C----44-66----66-88-----44-66----66-88--|
G-66-------44--------66-------44--------|
D---------------------------------------|

*Verse 4 x2

Interlude 4 x1
D----------------------------------|
A----------------------------------|
F----------------66-88----88-1010--|
C----44-66-88-88-------66----------|
G-66-------------------------------|
D----------------------------------|

Chorus 1 Pt.1 x1
D-------------------------------------------------------|
A-------------------------------------------------------|
F--------------------------------9--------9-------11----|
C-----------4-2-----7-6--------6---6----6---6---8----8--|
G-4~~--4~~------4-7-----9-6--7--------7-------9---------|
D-2~~--2~~----------------------------------------------|

Chorus 1 Pt.2 x1
D----------------------------------------------------------|
A----------------------------------------------------------|
F-----------------------------------9--------9-------11----|
C-----------44-4-2-----7-6--------6---6----6---6---8----8--|
G-4~~--4~~---------4-7-----9-6--7--------7-------9---------|
D-2~~--2~~-------------------------------------------------|

Verse 5 x5
D---------|
A---------|
F---------|
C---------|
G-4444-44-|
D-2222-22-|

Interlude 5 x1
D---------------------------------------|
A---------------------------------------|
F---------------------------------------|
C----44-66----66-88-----44-66----66-88--|
G-66-------44--------66-------44--------|
D---------------------------------------|

*Verse 6 x2

Interlude 6 x1
D----------------------------------|
A----------------------------------|
F----------------66-88----88-1010--|
C----44-66-88-88-------66----------|
G-66-------------------------------|
D----------------------------------|

*Verse 7x2

Interlude 7x1
D---------------------------------------|
A---------------------------------------|
F---------------------------------------|
C----44-66----66-88-----44-66----66-88--|
G-66-------44--------66-------44--------|
D---------------------------------------|

*Verse 8 x2

Interlude 8 x1
D----------------------------------|
A----------------------------------|
F----------------66-88----88-1010--|
C----44-66-88-88-------66----------|
G-66-------------------------------|
D----------------------------------|

*Verse 9 x2

Interlude 9 x1
D---------------------------------------|
A---------------------------------------|
F---------------------------------------|
C----44-66----66-88-----44-66----66-88--|
G-66-------44--------66-------44--------|
D---------------------------------------|

Then:
*Chorus 2 Pt.1 x1
*Chorus 2 Pt.2 x1

Post-Chorus 1 x2
D----------|
A----------|
F----------|
C----------|
G-4444-44--|
D-2222-22--|

Interlude 10 x1
D---------------------------------------|
A---------------------------------------|
F---------------------------------------|
C----44-66----66-88-----44-66----66-88--|
G-66-------44--------66-------44--------|
D---------------------------------------|

Interlude 11 x1
D----------------------------------|
A----------------------------------|
F----------------66-88----88-1010--|
C----44-66-88-88-------66----------|
G-66-------------------------------|
D----------------------------------|

Outro x2
D----------------------------------|
A----------------------------------|
F----------------66-88----88-1010--|
C----44-66-88-88-------66----------|
G-66-------------------------------|
D----------------------------------|

Song Order:
*Verse 1 x2
*Interlude 1 x1
*Verse 2 x2
*Interlude 2 x1
*Verse 3 x2
*Interlude 3 x1
*Verse 4 x2
*Interlude 4 x1
*Chorus 1 Pt.1 x1
*Chorus 1 Pt.2 x1
*Verse 5 x2
*Interlude 5 x1
*Verse 6 x2
*Interlude 6 x1
*Verse 7 x2
*Interlude 7 x1
*Verse 8 x2
*Interlude 8 x1
*Verse 9 x2
*Interlude 9 x1
*Chorus 2 Pt.1 x1
*Chorus 2 Pt.2 x1
*Post-Chorus 1 x2
*Interlude 10 x1
*Interlude 11 x1
*Outro x2

*Here Is A Link If You Wanna Play Along:
http://www.youtube.com/watch?v=7FNhhulxe2o

*Don't Forget To Rate And Comment If You Liked The Tab, And Comment Any
Corrections, I Welcome Corrections.
Добавлено: 05.02.2014
Другие материалы по этой песне:
  • Аккорды и текст

Страница создана 16.03.2012
http://primanota.ru/cky/disengage-the-stimulator-chords.htm
Привет, Гость.
Предлагаем пройти революционный курс по гитаре.
Подарок от PrimaNota.Ru, забирай!