PrimaNota.ru - самый крупный в мире бесплатный архив песенных текстов, аккордов, табулатур и нот


Cky - Deceit Is Striking Gold - текст песни, таба, видео

Регистрация Запомнить меня
Войти через:  Facebook Google Twitter Vk Yandex Mail.ru

Cky - Deceit Is Striking Gold - текст песни, таба, видео

Печатать
Просмотров: 99
Song:Deceit Is Striking Gold
Album:An Answer Can Be Found
Artist:CKY
Genre:Alternative Metal
Year:2005
Tuning:Whole-Step Down (D,G,C,F,A,D)

Intro x1
D------------------|
A------------------|
F------------------|
C-22-33-44-55-6-7--|
G-00-11-22-33-4-5--|
D------------------|

Verse 1 Pt.1 x2
D-------------------|
A-------------------|
F-------------------|
C-------------------|
G-2--7----6----5----|
D-0----0----0----0--|

D--------------------|
A--------------------|
F--------------------|
C-------7------------|
G----3/---7-5--------|
D-5-----------7-5-3--|

Verse 1 Pt.2 x1
D--------------------------------|
A--------------------------------|
F--------------------------------|
C--------8-7--------7------------|
G-2----7-6-5-----3/---7-5--------|
D-0--0--------5-----------7-5-3--|

Then:
*Verse 1 Pt.3 x1 (Use Verse 1 Pt.1 Riff)

Chorus 1 x4
D-----------------------------|
A-----------------------------|
F-----------------------------|
C----/7-6----2h4----2h4-------|
G----------4------4------3p2--|
D-2---------------------------|

Then:
*Verse 2 Pt.1 x2
*Verse 2 Pt.2 x1
*Verse 2 Pt.3 x1
*Chorus 2 Pt.1 x4

Chorus 2 Pt.2 x3
D-------------------------------------------------|
A-------------------------------------------------|
F-------------------------------------------------|
C-------------------------------------------------|
G---4--------2-5-2--2-2----4---------------0-2h4--|
D-2---2-22-2-------------0---0-00-0-2-5-2---------|

Chorus 2 Pt.3 x1
D------------------------------------------|
A------------------------------------------|
F------------------------------------------|
C------------------------------------------|
G---4--------2-5-2--2-2----4---------------|
D-2---2-22-2-------------0---0-00-0-2-5-2--|

Interlude 1 Pt.1 x1
D--------------------------------------------------------|
A--------------------------------------------------------|
F----/7-5------------------------------------------------|
C------------5h7---5h7-----------/7-6----2h4---2h4-------|
G----------7-----7------3p2------------4-----4------3p2--|
D-5---------------------------2--------------------------|

Interlude 1 Pt.2 x1
D---------------------------|
A---------------------------|
F---/7-5--------------------|
C---/7-5----5h7---5h7-------|
G---------7-----7------3p2--|
D-5-------------------------|

Then:
*Verse 3 Pt.1 x2
*Verse 3 Pt.2 x1
*Verse 3 Pt.3 x1
*Chorus 3 Pt.1 x4
*Chorus 3 Pt.2 x3
*Chorus 3 Pt.3 x1
*Interlude 2 Pt.1 x1
*Interlude 2 Pt.2 x1
*Chorus 4 Pt.2 x3
*Chorus 4 Pt.3 x1

Song Order:
*Intro x1
*Verse 1 Pt.1 x2
*Verse 1 Pt.2 x1
*Verse 1 Pt.3 x1 (Use Verse 1 Pt.1 Riff)
*Chorus 1 x4
*Verse 2 Pt.1 x2
*Verse 2 Pt.2 x1
*Verse 2 Pt.3 x1
*Chorus 2 Pt.1 x4
*Chorus 2 Pt.2 x3
*Chorus 2 Pt.3 x1
*Interlude 1 Pt.1 x1
*Interlude 1 Pt.2 x1
*Verse 3 Pt.1 x2
*Verse 3 Pt.2 x1
*Verse 3 Pt.3 x1
*Chorus 3 Pt.1 x4
*Chorus 3 Pt.2 x3
*Chorus 3 Pt.3 x1
*Interlude 2 Pt.1 x1
*Interlude 2 Pt.2 x1
*Chorus 4 Pt.2 x3
*Chorus 4 Pt.3 x1

Key:
P=Pull Off
H=Hammer On
/=Slide Up

*Don't Forget To Rate And Comment If You Liked The Tab, And Comment Any
Corrections, I Welcome Corrections.

*Here's A Link To The Song, If You Would Like To
Play Along To The Songs: https://www.youtube.com/watch?v=1QIqkALHGPs


Добавлено: 28.05.2014
Другие материалы по этой песне:

Страница создана 15.07.2013
http://primanota.ru/cky/deceit-is-striking-gold-chords.htm
Привет, Гость.
Предлагаем пройти революционный курс по гитаре.
Подарок от PrimaNota.Ru, забирай!