PrimaNota.ru - самый крупный в мире бесплатный архив песенных текстов, аккордов, табулатур и нот


Cky - Cky Vol 2 - таба, видео

Регистрация Запомнить меня
Войти через:  Facebook Google Twitter Vk Yandex Mail.ru

Cky - Cky Vol 2 - таба, видео

Печатать
Просмотров: 76
Cky Vol.2 Tab

The Songs Listed Are The Ones That I have Tabs For. None of this is my own work but
are very good tabs. I searched around for hours so I need only a little credit for using my
to compile all these together to make Cky vol.2. I realised that there aren't that many 
for vol.2 songs on the net so this will come in handy. If you see your tab here,
for bothering to make one urself (if u did);). If there's a tab a little wrong don't 
me. ;)ENJOY;)

1.Santas Coming
2.Foolin'
5.Shippensburg
9.Genesis 12A
10.Fat Fuck
11.Testing
12.Chad's In Hi-Fi
14.Eye Of The Tiger
15.Step To CKY
19.Arto/Rowley Part
21.Shitty Xmas
22.Barbara Jean
23.12 Days Of Xmas
25.Dropped
28.Foreign Objects #10

*********************************************************************************************************************************************

1. Santa's Coming
Tuning: half step down Eb

Intro:
------------------------------------------|
------------------------------------------|
-7-----7--7-9-7-----7-----7-9-7-----------|
-7--7--7--------9---7--7--------9-7-5-----|
-5--7--5------------5--7--------------7---|
----5------------------5------------------|

Pre-Verse
----------------------------------------------------------------|
----------------------------------------------------------------|
-----------------7-7--------------------------------------------|
-----7-7--7--7-9----------7-7--7--9-7-5-5---4-7---4---5---------|
-5-9------------------5-9-----------------------5---7------4----|
----------------------------------------------------------------|

Verse
---------------------------------------------|
---------------------------------------------|
------------------7-7------------------------|
-----7-7--7--7-9------------7-7--7--9-7-5-5--|
-5-9-------------------5-9-------------------|
---------------------------------------------|

Chorus- I'm gonna kill you
--------------------------------|
--------------------------------|
--------------------------------|
-7-------------0-0-0-0-0-0-0-0--|
-5--5-5--7--6--0-0-0-0-0-0-0-0--|
-5--5-5--7--6-------------------|

New Verse- He knows when your sleeping
-----------------------------------------------------------------|
-------------------------------------7---------------------------|
-7-9-7-6-7--------7-9-7-6-7--------9---9-8-9-6-6-6--6-7-9-7-6----|
-----------9-9-9------------9-9-9-----------------------------9-7|
-----------------------------------------------------------------|
-----------------------------------------------------------------|

*********************************************************************************************************************************************

2.Foolin'

Tuning: Standard

           Foolin'        Foolin'   f'f'f'Foolin'  Ah'f'f'Foolin'
-------------------------------------------------------------|
-------------------------------------------------------------|
-------------------------------------------------------------|
-------------------------------------------------------------|
---3/5--656-7653--2/4--656-7653--2/4-656-7653--2/4--656-7653-|
---3/5--656-7653--2/4--656-7653--2/4-656-7653--2/4--656-7653-|

       ..Understand this..Jess is......
------------------------------------------------------------------|
------------------------------------------------------------------|
------------------------------------------------------------------|
------------------------------------------------------------------|
--2/4--656-7653--2/4-656-7653--2/4-656-7653--2/4-656-7653--2/4----|
--2/4--656-7653--2/4-656-7653--2/4-656-7653--2/4-656-7653--2/4----|


------------------------------------------------------------------|
-----------------------------------------B9--7989898989898989898--|
-------------------------9876454567-------------------------------|
------------------------------------------------------------------|
----7898989898989889----------------------------------------------|
------------------------------------------------------------------|

              Foolin'       Foolin'    F*CK
---------------------------------------|
---------------------------------------|
---------------------------------------|
---------------------------------------|
-3/5--656-7653--2/4--656-7653--2/4-656-|
-3/5--656-7653--2/4--656-7653--2/4-656-|


*********************************************************************************************************************************************

5. Shippensburg
Tuning: Standard

Main/Intro
----------------------------------|
----------------------------------|
----------------------------------|
--------------7-5-------------2---|
-5-5-7-8--------------5---3-3---3-|
---------6-6------3-3---3---------|

Verse:
----------------------------------------|
----------------------------------------|
----------------------------------------|
-7-7------7-7-------7-7-------7-7-------|
-5-5--5-5-5-5--5-5--5-5--5-5--5-5--5-5--|
------3-3------3-3-------3-3-------3-3--|

Verse pt2
-------------------------|
-------------------------|
-------------------------|
-3--5--3--5--3--5--3--5--|
-3--5--3--5--3--5--3--5--|
-1--3--1--3--1--3--1--3--|

Chorus:
-----------------------------------------------|
-----------------------------------------------|
--4--7--5--------------------------------------|
--4--7--5--------------------------------------|
--2--5--3--------------------------------------|
--------------1-3-1--1-3-1-3--1-3-1-3--1-3-1-3-|

Cont...
---------------------------------------------------|
---------------------------------------------------|
--4--7--5------------------------------------------|
--4--7--5------------------------------------------|
--2--5--3--2X's------------------------------------|
------------------1-3-1--1-3-1-3--1-3-1-3--1-3-1-3-|


Solo: The Cry Baby time now...Make sure overdrive on amp is on..
--------------------------------------|
--------------------------------------|
-11-11-10-10-8-8-10-10-11-11-13-13-8--|
--------------------------------------|
--------------------------------------|
--------------------------------------|

Bridge: Guitar1
------------------------------------|
------------------------------------|
------------------------------------|
-0-0-0-0----------------------------|
---------1-1-1-1-----------3-3-3-3--|
------------------3-3-3-3-----------|

Bridge Guitar2:
-------------------------------------|
-------------------------------------|
-------------------------------------|
-7-7-7-7--------------------5-5-5-5--|
-5-5-5-8--8-8-8-8--5-5-5-5--3-3-3-3--|
----------6-6-6-6--3-3-3-3-----------|


*********************************************************************************************************************************************

9. Genesis 12A
Tuning: Standard

Main Riff
--------------------------------------------------------------|
--------------------------------------------------------------|
--------------------------------------------------------------|
--------------------------------------------------------------|
-----------7/8\7/8------------------------5/6\5/6-------------|
-----5--5------------2X's-----------3--3-------------2X's-----|

Riff 2
---------------------------------------------------|
---------------------------------------------------|
---------------------------------------------------|
----------7---5-------3---2-------7---5------------|
----------------3---3------------------------3-2---|
-5-5-3-5----3-----5-----5---5-3-5---3----5-5-----3-|

Riff3 pt1
-------------------------------------------------------------------------|
-------------------------------------------------------------------------|
-------------------------------------------------------------------------|
-------------------------------------------------------------------------|
-----------------------3---3---3------5------------------3---3---3------5|
------5---5---5---5------------------------5---5---5---------------------|

Riff 3 pt2
-----------------------------------------------------------------------|
-----------------------------------------------------------------------|
-----------------------------------------------------------------------|
-----------------------------------------------------------------------|
-------------------3---3---3------5-------------------3---3---3------5-|
--3---3---3---3------------------------3---3---3-----------------------|

Riff 3 pt3
----------------------------------------------------------------------|
----------------------------------------------------------------------|
----------------------------------------------------------------------|
----------------------------------------------------------------------|
-------------------3---3---3------5------------------3---3---3------5-|
--5---5---5---5------------------------5---5---5----------------------|

Riff 3 pt4
--------------------------------------------------------------------------|
--------------------------------------------------------------------------|
--------------------------------------------------------------------------|
--------------------------------------------------------------------------|
-----------------------3---3---3------5------------5---7-----5----3-------|
------3---3---3---3------------------------3---3--------------------------|

Riff4
-----------------------------------------------------------------------|
-----------------------------------------------------------------------|
--------------------------------------------------------4---------6----|
-----------------------6---6---6------8--------------------------------|
-----------------------------------------------------------------------|
-----4---4---4---4--------------------------0---0---0------0---0-------|

Riff4 end
--------------------------------------------------------------------------|
--------------------------------------------------------------------------|
--------------------------------------------------------------------------|
-----------------------6---6---6------8------------------5---5---5-----6--|
----4---4---4---4--------------------------6---6---6----------------------|
--------------------------------------------------------------------------|


*********************************************************************************************************************************************

10. Fat Fuck
Tuning: Drop D

Intro/Verse: Repeat 18X's
----------------------------------------------|
----------------------------------------------|
----------------------------------------------|
----------------------------------------------|
---5---0---5-4h2p0-2----2-2-------------------|
----------------------0-----------------------|

Chorus: Repeat 4 X's
-------------------------------------|
-------------------------------------|
-------------------------------------|
-------------------2-0---------------|
--2---2---2----0-2-------------------|
---234-234-234-----------------------|

Outro:
------------------------------------------|
------------------------------------------|
---------4---------------4----------------|
--0------4---------0-----4----------------|
--0------2---------0-----2---------5p0----|
--0----------------0----------------------|
  16 X's all till                   this

*********************************************************************************************************************************************

11. Testing
Tuning: Standard

s= slide

Intro/Riff 1- repeat 2x
-----------------------------------------------12---------------------12----------|
-----------------12----------------------15----------------------15---------------|
--------11-14-----------12----11----------------------------14--------------------|
-----12---------------12-----------14--12------------------------------------14---|
--14----------14----14-----14----14---------14-----14-13-12----12---12----12------|
----------------------------------------------------------------------------------|

Verse
--------------------------------------------------------------------|
--------------------------------------------------------------------|
--------------------------------------------------------------------|
------------7--9s11-------------------------------------------------|
----5---7s9-----------5---7----7------------------------------------|
--7--5--------------7---3---3---------------------------------------|

Verse 2
---------------------------|
---------------------------|
---------------------------|
--0-0-0--------------------|
--2-2-2--5-4---------------|
-------------5-2-5---------|

*********************************************************************************************************************************************

12. Chad's In Hi-Fi

Tuning: Drop D

Main Riff 4x
---------------------------------|
---------------------------------|
---------------------------------|
---------------------------------|
-------5---------8---7---5---7---|
-7-7-5---7-5-7-5---7---7---7---7-|

Verse 4x

-----------------------------------------------------------------|
-----------------------------------------------------------------|
-----------------------------------------------------------------|
-----------------------------------------------------------------|
-----------------------------5-7---------------------------------|
-7---7-5-7-5-7-5-7---7-5-7-5-----7---7-5-7-5-7-5-7---7-5-7-4-7-3-|

I can't deny it all my life
Is just a token of my eye
Something you would try

For the best in the obscene
You just look on your TV screen
To pass away the while

It doesn't matter if you're
Red, black, or in the sack
I've got my grip I've got a hold

But nothing ties one down like
Prime time in Hi-Fi
But now it's getting old

Chorus
The chorus is made up of playing Riff1 three times and Riff2 once

Riff 1 3x

 B5      D5     A5     E5
---------------------------------|
---------------------------------|
---------------------------------|
---9---9-----------7---7---------|
-------------5-5--------/9-7-5---|
-7---7-----------5---5---------7-|

Riff 2 1x

 B5      D5     F#5     A5
---------------------------------|
---------------------------------|
---------------------------------|
---9---9-------------------------|
-------------5-5/9--/9--/9-7-5---|
-7---7-------------------------7-|

People stop and stare
Here, there and everywhere
They've got the blueprints for life

If you keep pretending
The world is ending

Chorus Riff 2

 B5      D5     F#5     A5
---------------------------------|
---------------------------------|
---------------------------------|
---9---9-------------------------|
-------------5-5/9--/9--/9-7-5---|
-7---7-------------------------7-|
Then you'll be fictionized

Verse Riff 4x with lyrics

So stop the human drive
The fierce power switching on the
Ripe adolescent light
Terminates in five

The people standing in the lines
Have seen the film a million times
With a pocket full of dimes

So unless it is for free
You'll spin the country on its side
To be intensified

Chorus

People stop and stare
Here, there and everywhere
They've got the blueprints for life

If you keep pretending
The world is ending
Then you'll be fictionized

Bridge

It's on this TV
It's on the TV

Main Riff 6x

It's on your TV
It's on the TV
It's on his TV
It's on her TV
It's on his TV
It's on your TV screen!!!

Chorus (Don't sing the first half)
And you keep pretending
The world is ending
And you'll be fictionized

Chorus

Solo (During the second half of this Chorus)

-----------------------------|
----------------------10--12-|
-4---7-6---9-7---9-11--------|
-----------------------------|
-----------------------------|
-----------------------------|

Verse 2x

Outro 2x

-----------------------------------------------------------------|
-----------------------------------------------------------------|
-----------------------------------------------------------------|
-----------------------------------------------------------------|
-----------------------------5-6-7---7-5-7-5-7-5-7---7-5-7-5-7-8-|
-7---7-5-7-5-7-5-7---7-5-7-5-------------------------------------|

End on a B5 chord

*********************************************************************************************************************************************

14. Eye Of The Tiger

Tuning: Standard

Guitar 1:
(DISTORTION) twice
   C5        A#5                               G#5
--------------------------------------------------------|
--------------------------------------------------------|
--------------------------------------------------------|
--10~--10---8----10~--10---8---10~---10/-8~-/-6~~-------|
--10~--10---8----10~--10---8---10~---10/-8~-/-6~~-------|
--8~~--8----6----8~~--8----6---8~~---8~/-6~-/-4~~-------|

Guitar 1:
---------------------------------------------------------|
---------------------------------------------------------|
---------------------------------------------------------|
--10~--10---8----10~--10---8---10~---10/-8~-/-6~~--------|
--10~--10---8----10~--10---8---10~---10/-8~-/-6~~--------|
--8~~--8----6----8~~--8----6---8~~---8~/-6~-/-4~~--------|
Heavy Palm Muting----------------------------------------|

Guitar 2:
--------------------------------------------------------|
--------------------------------------------------------|
--------------------------------------------------------|
---9---9----7----9-----9----7---9-----9---7-----5-------|
--------------------------------------------------------|
--------------------------------------------------------|

Verse :

 (keep strumming)
---------------------------------------------------------------|
---------------------------------------------------------------|
-^^---------^^------------------^^-----------------------------|
-10---------6--------------------8-------------------------10--|
-10---------6--------------------8-------------------------10--|
-8----------4--------------------6-------------------------8---|
    Risin up,  back on the street...Took my time took my chances

---------------------------------------------------------------|
---------------------------------------------------------------|
---------------------------------------------------------------|
--10--8--10---back to beginning--------------------------------|
--10--8--10----------------------------------------------------|
--8---6--8-----------------------------------------------------|


*********************************************************************************************************************************************
15.Step To Cky

Tuning: Standard

-----------------------------------------------------------------------------|
-----------------------------------------------------------------------------|
-----------------------------------------------------------------------------|
-----------2---1-------------------------------------------------------------|
--1--4--1----1----4--1-0---------0-1-3-4-------------------------------------|
---------------------------1-2-1---------------------------------------------|
   (main riff)

------------------------------------------------------------------------------|
------------------------------------------------------------------------------|
------------------------------------------------------------------------------|
---------2---1----------------------------------------------------------------|
-1--4--1---1----4--1---0---------0--------------------------------------------|
----------------------------1--------1----------------------------------------|
    (variation)

-----------------------------------------------------------------------------|
-----------------------------------------------------------------------------|
-----------------------------------------------------------------------------|
-----------------------------------------------------------------------------|
-----------------------------------------------------------------------------|
---4-4--44--4-4--44--4-4--44--4-4--44----------------------------------------|
   (bridge)

*********************************************************************************************************************************************

19.Arto/Rowley Part

Tuning (Low to High):  Eb Ab Db Gb Bb Eb

This song uses some kind of phaser effect, but I'm not sure exactly what.

Riff 1:

-----------------------------------------------------------------|
----------------------------3p0-0-0------------------------------|
----------------0-0h2p0-2-2---------2-0-2-0----------------------|
2-2p0-2-2-2h5p2-----------------------------2--------------------|
-----------------------------------------------------------------|
-----------------------------------------------------------------|

-----------------------------------------------------------------|
----------------------------3p0-0-0------------------------------|
----------------0-0h2p0-2-2---------2-0-2-0-2--------------------|
2p0-2-2-2h5p2----------------------------------------------------|
-----------------------------------------------------------------|
-----------------------------------------------------------------|

Repeat 2x (don't play first note on repeat)

Riff 2:

-----------------------------------------------------------------|
--------------3-0-0-0-0-0-0--------------------------------------|
------0-2-2-2---------------------------------4-4-4-4-2-0-2------|
2-2-2-----------------------2h5-4-4-4-4-4-2-2--------------------|
-----------------------------------------------------------------|
-----------------------------------------------------------------|

Repeat 2x

Ending 1:

-----------------------------------------------------------------|
-----------------------------------------------------------------|
0------------------------------0---------------------------------|
--------2-0-2-2h4p2-0-0------------------------------------------|
-----------------------------------------------------------------|
-----------------------------------------------------------------|

Then repeat the entire thing, but instead of playing Ending 1 play this:

------------------------------------------------------------------|
------------------------------------------------------------------|
0-------------------------------------------------0---------------|
-------2-0-2-2h4p2-0-0-----5-4-2-2h4p2-0-0------------------------|
------------------------------------------------------------------|
------------------------------------------------------------------|

*********************************************************************************************************************************************

21.Shitty Xmas

Tuning: Half Step Down

------------------------------------------------------------------------------------|
------------------------------------------------------------------------------------|
------------------------------------------------------------------------------------|
---------------------------6-6--8--6--4--3-------8--8--9--8--6--4-----------6--3--4-|
-4--9-9--11--9--7--6--6-6--4-4--6--4--2--1--4-4--6--6--7--6--4--2--4--4--6--4--1--2-|
-2--7-7--9---7--5--4--4-4-------------------2-2--------------------2--2--4----------|

Gt1
------------------------------------------------------------------------------------|
------------------------------------------------------------------------------------|
------------------------------------------------------------------------------------|
---------------------------6-6--8--6--4--3-------8--8--9--8--6--4-----------6--3--4-|
-4--9-9--11--9--7--6--6-6--4-4--6--4--2--1--4-4--6--6--7--6--4--2--4--4--6--4--1--2-|
-2--7-7--9---7--5--4--4-4-------------------2-2--------------------2--2--4----------|

Gt2
----------------------------------------------------------------------------------------|
----------------------------------------------------------------------------------------|
----------------------------------------------------------------------------------------|
----------------------------------------------------------------------------------------|
---------------------------------------44444-66666-444444-22222-11111-------66666-77777-|
-2--77777-99999-77777-55555-444444444---------------------------------22222-------------|

Gt2

------------------------------------------------------------|
------------------------------------------------------------|
------------------------------------------------------------|
------------------------------------------------------------|
-66666-44444-22222-------------------44444--11111-22222222--|
-------------------444-22222--44444-------------------------|

verse

------------------------------------------------------------------------------------|
------------------------------------------------------------------------------------|
------------------------------------------------------------------------------------|
---------------------------6-6--8--6--4--3-------8--8--9--8--6--4-----------6--3--4-|
-4--9-9--11--9--7--6--6-6--4-4--6--4--2--1--4-4--6--6--7--6--4--2--4--4--6--4--1--2-|
-2--7-7--9---7--5--4--4-4-------------------2-2--------------------2--2--4----------|

Gt1

------------------------------------------------------------------------------------|
------------------------------------------------------------------------------------|
------------------------------------------------------------------------------------|
---------------------------6-6--8--6--4--3-------8--8--9--8--6--4-----------6--3--4-|
-4--9-9--11--9--7--6--6-6--4-4--6--4--2--1--4-4--6--6--7--6--4--2--4--4--6--4--1--2-|
-2--7-7--9---7--5--4--4-4-------------------2-2--------------------2--2--4----------|

Gt2

----------------------------------------------------------------------------------------|
----------------------------------------------------------------------------------------|
----------------------------------------------------------------------------------------|
----------------------------------------------------------------------------------------|
---------------------------------------44444-66666-444444-22222-11111-------66666-77777-|
-2--77777-99999-77777-55555-444444444---------------------------------22222-------------|

Gt2

------------------------------------------------------------|
------------------------------------------------------------|
------------------------------------------------------------|
------------------------------------------------------------|
-66666-44444-22222-------------------44444--11111-22222222--|
-------------------444-22222--44444-------------------------|


--------------------------------------------------------------------|
--------------------------------------------------------------------|
-/16~~--15~~--16-15-13--11------------------------------------------|
------------------------------6--8--6--4--11----------------6--3--4-|
------------------------------4--6--4--2--9---11--4---4--6--4--1--2-|
----------------------------------------------9---2---2--4----------|


---------------------------------------------------------------|
---------------------------------------------------------------|
---------------------------------------------------------------|
-------------------------6--8--6--4--11----------------6--3--4-|
-4--9---8---9--8--6--4---4--6--4--2--9---11--4---4--6--4--1--2-|
-2--7---6---7--6--4--2-------------------9---2---2--4----------|

----------------------------------------------------------------------------------------|
----------------------------------------------------------------------------------------|
----------------------------------------------------------------------------------------|
----------------------------------------------------------------------------------------|
---------------------------------------44444-66666-444444-22222-11111-------66666-77777-|
-2--77777-99999-77777-55555-444444444---------------------------------22222-------------|

Gt2

--------------------------------------------|
--------------------------------------------|
--------------------------------------------|
----------------------------------6--3---4--|
-66666-44444-22222------------6---4--1---2--|
-------------------444-22222--4-------------|


------------------------------------------------------------------------------------------|
-------------------------------------------------------------------------11-13-11-13-11-13|
--11-11-11-11-13-13-13-13-13-11-11-11-11-11-13-13-13-13-13--11-11-13-13-------------------|
------------------------------------------------------------------------------------------|
------------------------------------------------------------------------------------------|
------------------------------------------------------------------------------------------|


-----------------------------------------------------------------------------------|
-12-14-12-14--13-16-13--14-16-14--15-17-15--16-18-16--17-19-17---------------------|
-----------------------------------------------------------------------------------|
-----------------------------------------------------------------------------------|
-----------------------------------------------------------------------------------|
-----------------------------------------------------------------------------------|

-----------------------------------------18b~~---|
-16b-14-16~~--16b~~~~~~p14----------15-----------|
-----------------------------16b-----------------|
-------------------------------------------------|
-------------------------------------------------|
-------------------------------------------------|

------------------------------------------------------------------------------------|
------------------------------------------------------------------------------------|
------------------------------------------------------------------------------------|
---------------------------6-6--8--6--4--3-------8--8--9--8--6--4-----------6--3--4-|
-4--9-9--11--9--7--6--6-6--4-4--6--4--2--1--4-4--6--6--7--6--4--2--4--4--6--4--1--2-|
-2--7-7--9---7--5--4--4-4-------------------2-2--------------------2--2--4----------|

*********************************************************************************************************************************************

22. Barbara Jean (a Christmas song)


Tuning: Normal

-------------------------------------------------------------------------|
-------------------------------------------------------------------------|
-------------------------------------------------------------------------|
-------------------------------------------------------------------------|
-----6--5--6--5--6--5--6--5--6--5--6--5--6--5----------------------------|
----5--4--5--4--5--4--5--4--5--4--5--4--5--4-----------------------------|


 up on the rooftop...
----------------------|
----------------------|
----------------------|
----------------------|
----------------------|
---4754-346--5985794--|

    ho ho ho..
-------------------------------------------------------------------------|
-------------------------------------------------------------------------|
-------------------------------------------------------------------------|
------------------------7------------------------------------------------|
--------------------------67---------------------------------------------|
----458--565-4455456--5------789---888-8-6572----------------------------|

*******************************************************************************

23.12 Days Of Xmas
Tuning: Normal


     on The 12 days Of Christmas...
-----------------------|
-----------------------|
-----------------------|
-----------------------|
-----333-666-----------|
-----333-666--3434546--|


------------------|
------------------|
------------------|
------------------|
---3-5-7-5-4-5-3--|
---3-5-7-5-4-5-3--|


*********************************************************************************************************************
25. Dropped


RIFF - Intro and verses [palm-muted verses]
-----------------------------------------------------------------------------|
-----------------------------------------------------------------------------|
-----------------------------------------------------------------------------|
-----------------------------------------------------------------------------|
-----------------------------------------------------------------------------|
--0-3-0-3-0-3-0-3-0-3-0-3-0-3-0----------------------------------------------|

Chorus
---------------------|
---------------------|
---------------------|
--4-4--2--2--2--2----|
--4-4--2--2--2--2----|
--2-2--0--0--0--0----|
 Pm     .     .

Bridge
-----------------------------------------------------------------------------|
-----------------------------------------------------------------------------|
-----------------------------------------------------------------------------|
-----------------------------------------------------------------------------|
---2-2-2-2-4--2-2-2-2-4--2-2-4-----------------------------------------------|
-----------------------------------------------------------------------------|

*********************************************************************************************************************

28.Foreign Objects#10

Tuning: Normal

Main Riff
---------------------------------------------|
---------------------------------------------|
--------5------------------------------------|
-7--5-7---7-5-3-5---3-5-5-3-5----------------|
-5----------------3-----3--------------------|
------------------1--------------------------|x4

Main Riff (2nd Part)
---------------------------------------------|
---------------------------------------------|
-----------------------------7-5-3-2---------|
-------7-5-3-2-----------------------5-3-5-7-|
---8-----------5-3-5-7---7-------------------|
-6---6-----------------5---5-----------------|x4

Main Riff (3rd Part)
---------------------------------------------|
---------------------------------------------|
---------------------------------------------|
----3--5--------10--5--9---------------------|
-3--1--3--7--8--8---3--7---------------------|
-1--------5--6-------------------------------|
Добавлено: 10.08.2013
Другие материалы по этой песне:
  • Аккорды и текст

Страница создана 10.08.2013
http://primanota.ru/cky/cky-vol-2-chords.htm
Привет, Гость.
Предлагаем пройти революционный курс по гитаре.
Подарок от PrimaNota.Ru, забирай!