PrimaNota.ru - самый крупный в мире бесплатный архив песенных текстов, аккордов, табулатур и нот


Cky - Cky Vol 1 - таба, видео

Регистрация Запомнить меня
Войти через:  Facebook Google Twitter Vk Yandex Mail.ru

Cky - Cky Vol 1 - таба, видео

Печатать
Просмотров: 89
Уроки эстрадного вокала в Санкт-Петербурге
Cky Volume 1 Tab 

As Always This Is Not My Work. Just Searched The Net Finding Good Tabs For Cky Vol.1

1.96 Quite Bitter Beings
2.Rio Bravo
3.Disengage The Simulator
4.The Human Drive In Hi-Fi
5.Lost In A Contraption
6.Knee Deep
7.My Promiscuous Daughter
8.Sara's Mask
9.To All Of You
10.Halfway House*
                             
*Bonus Track
                           
=====96 Quite Bitter Beings==================================================================

Tuning: Eb

Intro/Chorus:
1|-----------------------------------------------|
2|-----------------------------------------------|
3|-----4--------4-5-4-------------7-5-4-2-0-4----|
4|---5--------5-------5-4------5--------------5--|
5|-7--------7-------------5-3--------------------|
6|-------0---------------------------------------|

Verse:                   Bridge:
1|------------------|  1|------------------------|
2|------------------|  2|------------------------|
3|------------------|  3|------------------------|
4|-----------6-6-6--|  4|-5-5-5-5-5---4-4-4-4-4--|
5|-2-2-2--2--4-4-4--|  5|-7-7-7-7-7---5-5-5-5-5--|
6|-0-0-0--0---------|  6|------------------------|

Bridge Pt2
1|------------------------------------|-----------------------------------|
2|------------------------------------|-----------------------------------|
3|------------------------------------|-----------------------------------|
4|-7-7-7--5-0--------5-5-5-5-0--------|-7-7-7-5-0-9-9-9--5-5-5-5-0-9-9-9--|
5|-5-5-5------2-2-2--3-3-3------2-2-2-|-5-5-5-----7-7-7--3-3-3-----7-7-7--|
6|------------0-0-0-------------0-0-0-|-----------------------------------|

====Rio Bravo=================================================================================

Tuning: Drop D

Intro/Main Riff:
1|--------------------------------------------------|
2|--------------------------------------------------|
3|--------------------------------------------------|
4|----8-----8-----8------8-8---8-----8-----8----8-8-|
5|----7-----7-----7------7-7---7-----7-----7----7-7-|
6|-0-----0-----0------------0-----0-----0-----------|

1|------------------------------------------------------------|
2|------------------------------------------------------------|
3|------------------------------------------------------------|
4|----8----9-8-7-----------5----------------------------------|
5|----7-----------7--5-6-7----------9-8-7----------5----------|
6|-0-----0---------------------0----------0--5-6-7---7-6-5-3-0|

1|--------------------------------------------------------|
2|--------------------------------------------------------|
3|--------------------------------------------------------|
4|----------------------------------5---------------5-----|
5|---9-8-7----------5---------5-6-7-----------5-6-7-------|
6|---------0--5-6-7---7-6-5-3---------7-6-5-3---------0---|

1|--------------------------------------------------|
2|--------------------------------------------------|
3|--------------------------------------------------|
4|----------------------------------5---------------|
5|---9-8-7----------5---------5-6-7-----------5-6-7-|
6|---------0--5-6-7---7-6-5-3---------7-6-5-3-------|

Bridge:
1|--------------------------------------------------|
2|--------------------------------------------------|
3|--------------------------------------------------|
4|----------------------------------5---------------|
5|---9-8-7----------5---------5-6-7-----------5-6-7-|
6|---------0--5-6-7---7-6-5-3---------7-6-5-3-------|

=====Disengage The Simulator==================================================================

Tuning: Drop D

Intro Guitar1   Guitar2
1|----------| 1|-----------------------|
2|----------| 2|-----------------------|
3|----------| 3|-----------------------|
4|4-44-4-44-| 4|--------4------4---3---|
5|4-44-4-44-| 5|-------4------4-4-1--4-|
6|2-22-2-22-| 6|-2-22-2---22-2---------|

Riff Guitar1
1|---------------------------------------|
2|---------------------------------------|
3|---------------------------------------|
4|----44-66-----66-88-----44-66----66-88-|
5|-66-------44--------66--------44-------|
6|---------------------------------------|

Riff3 guitar2
1|----------------------------------------------------|
2|----------------------------------------------------|
3|------------------------------6-6/8-8-----8-8/10-10-|
4|-----4-4/6-6-----6-6/8-8-/8-8---------6-6-----------|
5|-6-6---------4-4------------------------------------|
6|----------------------------------------------------|

Chorus
1|----------------------------------------------------| 
2|----------------------------------------------------| 
3|-------------------------------9~------9~-----11----| 
4|--------/4---2-----7-6-4-----6----6--6---6---8------|
5|-4---4---------4/7-------6-7--------7------9--------|
6|-2---2----------------------------------------------| 

1|------------------------------------------------------| 
2|------------------------------------------------------| 
3|---------------------------------9~------9~-----11----| 
4|-----/4-/4~---2-----7-6-4------6----6--6---6---8------|
5|--4------------4/7-------6-7---------7------9---------|
6|-2----------------------------------------------------| 

Outro
1|----------------------------------------------------|
2|----------------------------------------------------|
3|------------------------------6-6/8-8-----8-8/10-10-|
4|-----4-4/6-6-----6-6/8-8-/8-8---------6-6-----------|
5|-6-6---------4-4------------------------------------|
6|----------------------------------------------------|

====The Human Drive In Hi Fi=================================================================

Tuning: Drop D


Main Riff 4x
|---------------------------------|
|---------------------------------|
|---------------------------------|Wah 70's 
|---------------------------------|
|-------5---------8---7---5---7---|
|-7-7-5---7-5-7-5---7---7---7---7-|

Verse 4x

|-----------------------------------------------------------------|
|-----------------------------------------------------------------|
|-----------------------------------------------------------------|
|-----------------------------------------------------------------|
|-----------------------------5-7---------------------------------|
|-7---7-5-7-5-7-5-7---7-5-7-5-----7---7-5-7-5-7-5-7---7-5-7-4-7-3-|
 
Riff 1 3x

 B5      D5     A5     E5
|---------------------------------|
|---------------------------------|
|---------------------------------|
|---9---9-----------7---7---------|
|-------------5-5--------/9-7-5---|
|-7---7-----------5---5---------7-|

Riff 2 1x

 B5      D5     F#5     A5
|---------------------------------|
|---------------------------------|
|---------------------------------|
|---9---9-------------------------|
|-------------5-5/9--/9--/9-7-5---|
|-7---7-------------------------7-|

 

 B5      D5     F#5     A5
|---------------------------------|
|---------------------------------|
|---------------------------------|
|---9---9-------------------------|
|-------------5-5/9--/9--/9-7-5---|
|-7---7-------------------------7-|
 

Solo

|-----------------------------|
|----------------------10--12-|
|-4---7-6---9-7---9-11--------|
|-----------------------------|
|-----------------------------|
|-----------------------------|

Verse 2x

Outro 2x

|-----------------------------------------------------------------|
|-----------------------------------------------------------------|
|-----------------------------------------------------------------|
|-----------------------------------------------------------------|
|-----------------------------5-6-7---7-5-7-5-7-5-7---7-5-7-5-7-8-|
|-7---7-5-7-5-7-5-7---7-5-7-5-------------------------------------|

End on a B5 chord


==========Lost In A Contraption==============================================================
 
Tuning: Drop D


Guitar 1
Intro/Verse
|----------------------------------|
|----------------------------------|
|----------------------------------|
|---4---4---4---4---4---4---4---4--|
|----------------------------------|
|-2---2---2---2---2---2---2---2----|

Guitar 2
Intro Riff
   F#
|------------------------------------8--7----------7-8-7----------------------|
|-9-10-9---------------9--10--9--10-------10-9--10-------9-10--9-10-9---------|
|-------10-11----10-11-----------------------------------------------11-10-11-|
|-----------------------------------------------------------------------------|
|-----------------------------------------------------------------------------|
|-----------------------------------------------------------------------------|

Verse

Pre-Chorus

Guitar 1
|----------------------------------------------|
|----------------------------------------------|
|----------------------------------------------|
|----------------------------------------------|
|----------------------------------------------|
|-2-5-4--3-4-5-4-3--4-5--2-5-4--3-4-5-4-3--4-5-|
Play 4x

Guitar 2
|--------------20-18-16------20-18-16--20-18-16|
|----------------------------------------------|
|----------------------------------------------|
|----------------------------------------------|
|----------------------------------------------|
|----------------------------------------------|

Verse 2

Guitar 2
   F#
|-------------------------------------------------------|
|-8-9-8-----------8-9-8-----------8-9-12-11-9-8---------|
|-------9-10-9h10-------10-9-9-10---------------10-9-10-|
|-------------------------------------------------------|
|-------------------------------------------------------|
|-------------------------------------------------------|

Chorus

Guitar 1
|------------------------------------------------|
|------------------------------------------------|
|------------------3---5/8-------------3---5/8---|
|--------------------------6---------------------|
|--------------------------8-------------------6-|
|------------------------------------------------|

Guitar 2
|-----------------------------------------|
|-----------------------------------------|
|-------11-11-9--8------------------------|
|-1---------------------------------------|
|-----------------------------------------|
|-----------------------------------------|

|-----------------------------------------|
|-----------------------------------------|
|---11-11--11-11-9-8----------------------|
|-1---------------------------------------|
|-----------------------------------------|
|-----------------------------------------|

Pre-Chorus 2

Bridge

|---------------------------|
|---------------------------|
|-------------5-------------|
|----------------6-5-3------|
|-3-6-5-----3-----------6---|
|-------6-3-----------------|

Play 8x


==========Knee Deep==========================================================================

Tuning: Drop D

Intro/Main Riff
|-------------------------------------------------|
|-------------------------------------------------|
|------9b11r9-------------------------------------|
|-----9-------9--7-7--5/7-7--7--7p5---5--5--5p5---|
|-7-----------------------5--5--5-----3--3--3-----|
|-------------------------------------------------|

|-------------------------------------------------|
|-------------------------------------------------|
|------9b11r9-------------------------------------|
|-----9-------9-7-7-5p0-7-7--7--7p5---7--7--7p5---|
|-7---------------------5-5--5--5-----3--3--3-----|
|-0-----------------------------------------------|

Verse

Guitar 1
|---------------------------------------------------|
|---------------------------------------------------|
|---------------------------------------------------|
|-------------------7---7--7-5--5-5-7---7--7-5--5-5-|
|-2----2--2-2---2-2-5---5--5-5--5-5-3---3--3-3--3-3-|
|-0----0--0-0---0-0-5---5--5-5--5-5-3---3--3-3--3-3-|

Guitar 2
|---------------------------------------------------|
|---------------------------------------------------|
|-----9b11r9----------------------------------------|
|----9-------9--7-7--5-7---7--7--7p5-5--7--7--7p5-5-|
|-2------------------------5--5--5---5--3--3--3---3-
|-0-------------------------------------------------|

Play 4x
 

Lead 1 (Guitar 2)
|--------------------------------------------------------|
|--------------------------------------------------------|
|------9b11r9-------------/7----7-0-0--7/9-9-9-7/9-9-----|
|-----9-------9--7-7--5/7----------------------------9---|
|-7----------------------------------------------------7-|
|--------------------------------------------------------|

|-------------------------------------------------|
|-------------------------------------------------|
|------9b11r9-------------------------------------|
|-----9-------9--7-7--5/7-7--7--7p5---7--7--7p5---|
|-7-----------------------5--5--5-----3--3--3-----|
|-------------------------------------------------|
 
Bridge pt 1

Guitar 1
|-----------------------------|
|-----------------------------|
|-----------------------------|
|-----------------------------|
|-4-------4-------------------|
|-2-------2-------------------|

Guitar 2
|-----------------------------|
|-----------------------------|
|-----------------------------|
|----2h4---------2-4-2--6-4-2-|
|-4-------4----4--------------|
|-2-------2--2----------------|

Bridge Part 2

Guitar 2
|----------------------------------------------------------|
|----------------------------------------------------------|
|----------------------------------------------------------|
|----2h4-----2---2-4-2--6-4-2-----2h4-----2---2-4-2--6-4-2-|
|-4-------4----4---------------4-------4----4--------------|
|-2-------2--------------------2-------2-------------------|

|----------------------------------------------------------|
|----------------------------------------------------------|
|----------------------------------------------------------|
|------------2---2-4-2--6-4-2-------------2---2-4-2--6-4-2-|
|-7--6--4------4----------------------------4--------------|
|-5--4--2-2--------------------5--3--2-2-------------------|

Repeat once more

Verse 3
With reverb etc...
|---------------------------------|
|---------------------------------|
|---------------------------------|
|-------12\9-9--7-0--7-0-5------7-|
|-7----------------------7------5-|
|-0-------------------------------|
 
Outro

Guitar 1
|---------------------------------------------------|
|---------------------------------------------------|
|---------------------------------------------------|
|-------------------7---------------5---------------|
|-2-----------------5---------------3---------------|
|-0-------------------------------------------------|


========My Promiscuous Daughter===============================================================
Tuning: Drop D


Intro/verse


Guitar 1
1|-----------------------------------------------------------------| 
2|-----------------------------------------------------------------| 
3|-----------------------------------------------------------------| 
4|---------9-7---7---------9-7---7---------------------------------| 
5|-----7-7-----7-------7-7-----7---5-5-5-5-5-5-5-5-5-5-5-5-5-5-5-5-| 
6|-0-0-------------0-0-------------3-3-3-3-3-3-3-3-3-3-3-3-3-3-3-3-|

Guitar 2
1|-----------------------------------------------------------------| 
2|-----------------------------------------------------------------| 
3|-----------------------------------------------------------------| 
4|-----------------------------------------------------------------| 
5|-2-2-2-2-2-2-2-2-2-2-2-2-2-2-2-2-5-5-5-5-5-5-5-5-5-5-5-5-5-5-5-5-| 
6|-0-0-0-0-0-0-0-0-0-0-0-0-0-0-0-0-3-3-3-3-3-3-3-3-3-3-3-3-3-3-3-3-| 

Chorus Guitar1
1|-----------------------------------------------------------------| 
2|-----------------------------------------------------------------| 
3|-----------------------------------------------------------------| 
4|-9-9-9-9-9-9-9-9-9-9-9-9-9-9-9-912121212121212121212121212121212-| 
5|-7-7-7-7-7-7-7-7-7-7-7-7-7-7-7-710\9-9-9-9-910\9-9-9-9-910\9-9-9-| 
6|-0-0-0-0-0-0-0-0-0-0-0-0-0-0-0-0---------------------------------|

Guitar 2
1|-----------------------------------------------------------------| 
2|-----------------------------------------------------------------| 
3|-----------------------------------------------------------------| 
4|---------------------------------7-7-7-7-7-7-7-7-7-7-7-7-7-7-7-7-| 
5|-2-2-2-2-2-2-2-2-2-2-2-2-2-2-2-2-5-5-5-5-5-5-5-5-5-5-5-5-5-5-5-5-| 
6|-0-0-0-0-0-0-0-0-0-0-0-0-0-0-0-0-5-5-5-5-5-5-5-5-5-5-5-5-5-5-5-5-|

Interlude
1|-------4-4---2-2---0-2---0-2---2-0-2-------| 
2|-0-2-----------------------0-----------0---| 
3|-------------------------------------------| 
4|-------------------------------------------| 
5|-------------------------------------------|
6|-------------------------------------------|

Bridge

|----------------------------------------------------------------------------|
|----------------------------------------------------------------------------|
|----------------------------------------------------------------------------|
|----------------------------------------------------------------------------|
|----/7p4------------------------/7p4----------------------------------------|
|-0-------7---0---3-/5-/5---0--0------7-0--3-5-3-5---------------------------| x5


========Sara's Mask==========================================================================

Tuning: Drop D

Intro/Verse:
1|-----------------------------------------|
2|-----------------------------------------|
3|-------------------7---------------------|
4|-----------9----------9------------------|
5|---------------9--------9--7---7--5-7-s9-|
6|-2-3---s7--------------------------------|

Chorus
1|---------------------------------------------------------|
2|---------------------------------------------------------|
3|---------------------------------------------------------|
4|------12-11---11-7---------------------------------------|
5|------------------------7s9---7-7--5-7-7s9s7-------7-----|
6|-7-------------------------------------------5---5---5-7-|

|----------------------------------------------------------------------------|
|----------------------------------------------------------------------------|
|----------------------------------------------------------------------------|
|----12-11--11-7-7-/9-7-7--9p7-----------------------------------------------|
|-------------------------------9-7-5-7/9\7----------------------------------|
|-7--------------------------------------------------------------------------|

Pre-Chorus
1|-------------------------------------------------------|
2|-------------------------------------------------------|
3|-------------------------------------------------------|
4|--------------9-7--------------------------------------|
5|-7--8-9--7-5--7-5----7--8-9--7-5--9-7----7------5--s10-|
6|-5--6-7--5-3---------5--6-7--5-3--7-5----5------3--s8--|

Bridge Guitar1
|----------------|------------------|----------------------------------------|
|----------------|------------------|----------------------------------------|
|----------------|------------------|----------------------------------------|
|----------------|------------------|----------7-----------------------------|
|----------------|-7--9-9-12-12--7--|--7-9-7-9-------------------------------|
|-7-10-7-9-7--5--|------------------|----------------------------------------|
Guitar2
|---------------|-------------------|----------------------------------------|
|---------------|-------------------|----------------------------------------|
|---------------|-------------------|----------------------------------------|
|---------------|-------------------|----------------------------------------|
|---------------|-7vv------------7v-|----------------------------------------|
|-5b---------/7-|-------------------|----------------------------------------|

Bridge2
1|------------------------------------------------|
2|------------------------------------------------|
3|------7p6--6------------7---7--7-7--------------|
4|-------------7-7---7-7--7---7--7-7--7-7---7-7-7-|
5|-9----------------------5---5--5-5--7-7---7-7-7-|
6|-7----------------------------------5-5---5-5-5-|

1|---------------------------------------------------------|
2|---------------------------------------------------------|
3|---------------------------------------------------------|
4|------12-11---11s7-------------------------------------0-|
5|------------------------7s9---7-7--5-7-7s9s7------s7-----|
6|-7-------------------------------------------5---5-------|

1|-------------------------------------------------|
2|-------------------------------------------------|
3|-------------------------------------------------|
4|-7h9p7---7h9p7-----------------------------------|
5|---------------9-7--5-7s9s7----------7-----------|
6|----------------------------5------5----5h7------|


1|---------------------------------------------------------|
2|---------------------------------------------------------|
3|---------------------------------------------------------|
4|------12-11---11s7-----------------------------------0---|
5|------------------------5---7--7s9-7-7-----5-------------|
6|-7-------------------7-----------------------------------|



========To all of you========================================================================

Tuning: Drop D

Main Riff
1|-----------------------------------------|
2|-----------------------------------------|
3|-----------------------------------------|
4|-5-----9-----7-----2--4------5----4--0---|
5|-7--5--7-----7--10-3--5------7----5--5---|
6|-0--7--8-----8---8-5--7------8-----------|

Riff2
|-----------|-----------|----------------------------------------------------|
|-----------|-----------|----------------------------------------------------|
|-----------|-----------|----------------------------------------------------|
|---7-6-5---|----7-6-5~-|-3-5/7-5-3----3/5-5---5-----5----3------------------|
|-5---------|--5--------|-----------5--------3----2----1---------------------|
|-----------|-----------|----------------------------------------------------|

Interlude
1|---------------------------------------------------|
2|---------------------------------------------------|
3|---------------------------------------------------|
4|------77777777--55555555---------------------------|
5|---------------------------------------------------|
6|---------------------------------------------------|

|----------------------------------------------------------------------------|
|----------------------------------------------------------------------------|
|----------------------------------------------------------------------------|
|---77777777-55555555-33333333--5h7-5h7-5h7-5h7-5h7-5h7-5h7-5h7--------------|
|----------------------------------------------------------------------------|
|----------------------------------------------------------------------------|

======Half Way House========================================================================

Hidden Track
Tuning: Drop D 

Intro: 

Guitar1
1|---------------------------------------|
2|---------------------------------------|
3|-3-------------------2-----------------|
4|-5-------------------3-----------------|
5|-5-------------------3-----------------|
6|-3-------------------1-----------------|

Guitar2
|--------------------------------------------------------------------------|
|--------------------------------------------------------------------------|
|--------------------------------------------------------------------------|
|-----3/5-5/8-7-5\3--------------------3/5------/8---7---5\3---------------|
|--------------------------------------------------------------------------|
|--------------------------------------------------------------------------|

1|----------------------------------------------------------------|
2|----------------------------------------------------------------|
3|----------------------------------------------------------------|
4|----------------------------3--------3/5-5/8--7\3---------------|
5|----------------------------------------------------------------|
6|----------------------------------------------------------------|

Verse Guitar2
|----------------------------------------------------------------------------|
|---------7-6-----------------11------9----------7-6-----------------11----9-|
|-----6-------8--6-------8----8-----8--------6-------8--6-------8----8-----8-|
|-8-----8----------8--6----6-------------8-----8----------8--6----6----------|
|----------------------------------------------------------------------------|
|----------------------------------------------------------------------------|

Guitar1
|----------------------------------------------------------------------------|
|----------------------------------------------------------------------------|
|----------------------------------------------------------------------------|
|----------------------------------------------------------------------------|
|-5------------5-1--3----------3-1-------5------------5-1--3-------3-1-1/5---|
|-3--3-6-3-6-3------1--------------------3--3-6-3-6-3------1-----------------|

Interlude
1|-15-15-15--18-17-15-13-11-10-6-8-8/10-6------|
2|---------------------------------------------|
3|---------------------------------------------|
4|---------------------------------------------|
5|---------------------------------------------|
6|---------------------------------------------|

Pre-Chorus Guitar2
|----------------------------------------------------11-9-11-11h13p11-9-8----|
|-------------------11-------------------11-11h13----------------------------|
|-------------------------------------------------------------------------13-|
|----------------------------------------------------------------------------|
|----------------------------------------------------------------------------|
|----------------------------------------------------------------------------|

Chorus Guitars1 and 2
1|---------------------------------------|
2|---------------------------------------|
3|---------------------------------------|
4|---------------------------------------|
5|-8----------8----8---4----------4----4-|
6|-6----------6----6---2----------2----2-|

|--------------------------|
|--------------------------|
|--------------------------|
|--------------------------|
|-8----------8----8---9----|
|-6----------6----6---7----| x4






Добавлено: 01.11.2013
Другие материалы по этой песне:
  • Аккорды и текст

Страница создана 01.11.2013
http://primanota.ru/cky/cky-vol-1-chords.htm
Привет, Гость.
Предлагаем пройти революционный курс по гитаре.
Подарок от PrimaNota.Ru, забирай!