PrimaNota.ru - самый крупный в мире бесплатный архив песенных текстов, аккордов, табулатур и нот


Cky - Bite It You Scum - таба, видео

Регистрация Запомнить меня
Войти через:  Facebook Google Twitter Vk Yandex Mail.ru

Cky - Bite It You Scum - таба, видео

Печатать
Просмотров: 319
Intro/Chorus
------------------|------------------|----------------|---------------|
------------------|------------------|----------------|---------------|
------------------|------------------|----------------|---------------|
--7--7---x---7--7-|-7--7---x--7---7--|--3--3---x--3--3|-5-------------|
--7--7---x---7--7-|-7--7---x--7---7--|--3--3---x--3--3|-3-----5-------|
--5--5---x---5--5-|-5--5---x--5---5--|--1--1---x--1--1|-------3-------|


Verses
----------------|----------------|----------------|----------------|
----------------|----------------|----------------|----------------|
----------------|----------------|----------------|----------------|
7---------------|----------------|3---------------|5---------------|
7---------------|----------------|3---------------|3-------5-------|
5---------------|----------------|1---------------|--------3-------|

SOLO by guitar2. guitar1 plays the chorus chord
----------------------|----------------------|
----------------------|----------------------|
14---12------14-12----|14---12------14-12----|
--------14---------14-|--------14---------14-|
----------------------|----------------------|
----------------------|----------------------|


-----------------|-------------------|-------------------|------------------|
-----------------|-------------------|-------------------|------------------|
14-----14----14-*|14------12-----12-*|14-----14------14-*|12-----12------12-|
----14----14-----|-----14-----12-----|----14------14-----|----12------12----|
-----------------|-------------------|-------------------|------------------|
-----------------|-------------------|-------------------|------------------|

--------------------|--------------------|---------------|----------------|
--------12-----13-*-|15------15------15-*|---------------|----------------|
14------------------|--------------------|17---16---14---|17----16-----14-|
-----14-----14------|-----14------14-----|---------------|----------------|
--------------------|--------------------|---------------|----------------|
--------------------|--------------------|---------------|----------------|

-----------------|----------------|-------------------|17-15-17-19-17-19-|
-----------------|----------------|17-15-17-19---17-19|------------------|
19----17----19---|21-----19---21--|-------------------|------------------|
-----------------|----------------|-------------------|------------------|
-----------------|----------------|-------------------|------------------|
-----------------|----------------|-------------------|------------------|

21---------------|22-----21-----22---|21---|
-----------------|-------------------|-----|
-----------------|-------------------|-----|
-----------------|-------------------|-----|
-----------------|-------------------|-----|
-----------------|-------------------|-----|

21-~--~--~--~--~--~--~--|-~---~---~---~-----~-|0---|
------------------------|---------------------|----|
------------------------|---------------------|----|
------------------------|---------------------|----|
------------------------|---------------------|----|
------------------------|---------------------|----|

*---------------|0---------------|
----------------|----------------|
----------------|----------------|
----------------|----------------|
----------------|----------------|
----------------|----------------|
Добавлено: 04.07.2013
Другие материалы по этой песне:
  • Аккорды и текст

Страница создана 04.07.2013
http://primanota.ru/cky/bite-it-you-scum-chords.htm
Привет, Гость.
Предлагаем пройти революционный курс по гитаре.
Подарок от PrimaNota.Ru, забирай!