PrimaNota.ru - самый крупный в мире бесплатный архив песенных текстов, аккордов, табулатур и нот


Cky - Behind The Screams - таба, видео

Регистрация Запомнить меня
Войти через:  Facebook Google Twitter Vk Yandex Mail.ru

Cky - Behind The Screams - таба, видео

Печатать
Просмотров: 124
----------------------------------------------------------------------------
			BEHIND THE SCREAMS - CKY
----------------------------------------------------------------------------
Tabbed by: PumaShogun

Tuning: Standard (Acoustic)

e|------------10-----10s/12--8-----8s/10--7---------------------------------|
B|-8-----10-----------------------------------------------------------------|
G|----0-----0----0-------------0--------------------------------------------|
D|--------------------------------------------------------------------------|
A|-7----7-----7----7---------7---7--------6---------------------------------|
E|--------------------------------------------------------------------------|

e|-5p3-3p2-2-------2---2h3p2--0-2--3------2--3------------------------------|
B|-------------3-----3---------------0--3------3----------------------------|
G|--------------------------------------------------------------------------|
D|-0---------0---0----------------------------------------------------------|
A|----------------------------3---3-----2---2-------------------------------|
E|--------------------------------------------------------------------------|

e|------------10-----10s/12--8-----8s/10--7-----7---------------------------|
B|-8-----10------------------------------------7----------------------------|
G|----0-----0----0-------------0--------------------------------------------|
D|--------------------------------------------------------------------------|
A|-7----7-----7----7---------7---7--------6---------------------------------|
E|--------------------------------------------------------------------------|

e|-5p3-3p2-2-------2---2h3p2--0-2---3-----2---3------------------------------|
B|-------------3-----3------------0---0-3---3---3----------------------------|
G|---------------------------------------------------------------------------|
D|-0---------0---0-----------------------------------------------------------|
A|----------------------------3---------2------------------------------------|
E|---------------------------------------------------------------------------|

e|-----------------------------------------12-------------------------------|
B|-8------10---8-------10---10-------12----12-------------------------------|
G|---9--9----9---9---9----9----9---9----9-----------------------------------|
D|--------------------------------------------------------------------------|
A|-7---7--------------------------------------------------------------------|
E|-------------10--10--------8---8----------8-------------------------------|

e|-7\55-5\3-3--3p2-----5---0-2---3------2---3-------------------------------|
B|-8\77-7\5-5------3---3-------0---0--3---3---3-----------------------------|
G|--------------------------------------------------------------------------|
D|-------------0-----0------------------------------------------------------|
A|-------------------------3----------2-------------------------------------|
E|-0------------------------------------------------------------------------|

e|-----------------------------------------12-------------------------------|
B|-8------10---8-------10---10-------12----12-------------------------------|
G|---9--9----9---9---9----9----9---9----9-----------------------------------|
D|--------------------------------------------------------------------------|
A|-7---7--------------------------------------------------------------------|
E|-------------10--10--------8---8----------8-------------------------------|

e|-7\5-5\3-3--3p2-----5---0-2---3-----2--3----------------------------------|
B|-8\7-7\5-5------3---3-----------0-3------3--------------------------------|
G|--------------------------------------------------------------------------|
D|------------0-----0-------------------------------------------------------|
A|------------------------3---3-----2---2-----------------------------------|
E|-0------------------------------------------------------------------------|

e|--------------------------------------------------------------------------|
B|-5/7----7h8p7-5---3---5---5/7----7h8p7--5---------------------------------|
G|------------------------0-------------------------------------------------|
D|--------------------------0----0--------3---------------------------------|
A|--------------------------------------------------------------------------|
E|-0----0---------0---0-----------------------------------------------------|

e|-10\7--7---10---12---7------7---------------------------------------------|
B|-12\8--8---12---12---8----8---10--8--10--10/12--7-------------------------|
G|------------------------9-----------------------7-------------------------|
D|------------------------------------------------9-------------------------|
A|------------------------------------------------9-------------------------|
E|-0-------0----0----0----------8-----8---8-------7-------------------------|

e|--------------------------------------------------------------------------|
B|-5/7----7h8p7-5---3---5---5/7----7h8p7--5---------------------------------|
G|------------------------0-------------------------------------------------|
D|--------------------------0----0--------3---------------------------------|
A|--------------------------------------------------------------------------|
E|-0----0---------0---0-----------------------------------------------------|

e|-10\7--7---10---12---7------7---------------------------------------------|
B|-12\8--8---12---12---8----8---10--8--10--10/12--7-------------------------|
G|------------------------9-----------------------7-------------------------|
D|------------------------------------------------9-------------------------|
A|------------------------------------------------9-------------------------|
E|-0-------0----0----0----------8-----8---8-------7-------------------------|

e|-----------------------------------------12-------------------------------|
B|-8------10---8-------10---10-------12----12-------------------------------|
G|---9--9----9---9---9----9----9---9----9-----------------------------------|
D|--------------------------------------------------------------------------|
A|-7---7--------------------------------------------------------------------|
E|-------------10--10--------8---8----------8-------------------------------|


e|-0-2---3------2---3-----3/5---3----2---0------the-last-note----0----------|
B|---------0--3-------3----------------0--------could-also-be----0----------|
G|---------------------------------------------------this--------0----------|
D|------------------------0-------0--1---------------=======>>---2----------|
A|-3---3------2---2----------------------------------------------2----------|
E|---------------------------------------0-----------------------0----------|

Well thats it. I don't think that its too confusing. Let me know if there's something 
because I dont think that it is 100% right.

| /  slide up
| \  slide down
| h  hammer-on
| p  pull-off

============================================================================
Добавлено: 03.11.2013
Другие материалы по этой песне:
  • Аккорды и текст

Страница создана 07.08.2013
http://primanota.ru/cky/behind-the-screams-chords.htm
Привет, Гость.
Предлагаем пройти революционный курс по гитаре.
Подарок от PrimaNota.Ru, забирай!