PrimaNota.ru - самый крупный в мире бесплатный архив песенных текстов, аккордов, табулатур и нот


Cky - Attached At The Hip - аккорды и текст, таба, бас-таба, драм-таба, видео

Регистрация Запомнить меня
Войти через:  Facebook Google Twitter Vk Yandex Mail.ru

Cky - Attached At The Hip - аккорды и текст, таба, бас-таба, драм-таба, видео

Печатать
Просмотров: 136
Уроки эстрадного вокала в Санкт-Петербурге
Attached At The Hip
Cky
Author/Artist: CKY
Title: Attached at the Hip
Album: 3rd Album
Transcribed by: Aaron Patey
Email: Ace_29@hotmail.com

Tuned 1/2 step low, like most cky songs.

MAIN RIFF
--------------------------------------------------------------------------------|
--------------------------------------------------------------------------------|
-4---------------------4--------------------------------------------------------|
-4----------2----------4----------2-2-------------------------------------------|
-2------------5--------2--------------5-5------X2-------------------------------|
----2-5-2-5-----2-5-------2-5-2-5-----------------------------------------------|

VERSE
------------------------------------------------------------------------------|
------------------------------------------------------------------------------|
--44--44-44-------------------------------------------------------------------|
--44--44-44--X4---------------------------------------------------------------|
--22--22-22--------5555555555-4-2---5555555555-4-2----X2----------------------|
------------------------------------------------------------------------------|

MAIN RIFF
---------------------------------------------------------------------------------|
---------------------------------------------------------------------------------|
-4---------------------4---------------------------------------------------------|
-4----------2----------4----------2-2--------------------------------------------|
-2------------5--------2--------------5-5------X2--------------------------------|
----2-5-2-5-----2-5-------2-5-2-5------------------------------------------------|

VERSE
------------------------------------------------------------------------------|
------------------------------------------------------------------------------|
--44--44-44-------------------------------------------------------------------|
--44--44-44--x4---------------------------------------------------------------|
--22--22-22--------5555555555-4-2---5555555555-4-2----X2----------------------|
------------------------------------------------------------------------------|

CHORUS
---------------------------------------------------------------------------------|
---------------------------------------------------------------------------------|
--4------7------2-------------7--6-----------------------------------------------|
--4------7------2------4------7--6--------X4-------------------------------------|
--2------5------0------4------5--4-----------------------------------------------|
-----------------------2---------------------------------------------------------|

MAIN RIFF X2
VERSE
MAIN RIFF X2
CHORUS
Добавлено: 12.03.2012
Другие материалы по этой песне:
  • Аккорды и текст

Страница создана 12.03.2012
http://primanota.ru/cky/attached-at-the-hip-chords.htm
Привет, Гость.
Предлагаем пройти революционный курс по гитаре.
Подарок от PrimaNota.Ru, забирай!