PrimaNota.ru - самый крупный в мире бесплатный архив песенных текстов, аккордов, табулатур и нот


Cky - And She Never Returned - таба, видео

Регистрация Запомнить меня
Войти через:  Facebook Google Twitter Vk Yandex Mail.ru

Cky - And She Never Returned - таба, видео

Печатать
Просмотров: 94
Уроки эстрадного вокала в Санкт-Петербурге
                                 CKY
                     "...And She Never Returned"
                              Carver City
Tuning:DGCFAD
*Use Octave Effect

 Intro                                                              4x
||--------------------------------|---------------------------------||
||o-------------------------------|--------------------------------o||
||--------------------------------|---------------------------------||
||-----------------5--------------|-5--------------7-------9-7-7-7--||
||o------------------3-3-3--3-3-3-|---3-3-3--3-3-3---5-5-5---------o||
||--0-0-0-0--0-0-0----------------|---------------------------------||


|----------------------|----------------------|
|----------------------|----------------------|
|----------------------|----------------------|
|----------------------|----------------------|
|------------------2---|--------------5-------|
|-5-5-5-5--3-5-3-5---7-|-7-7-7-7--5-7---7-5-3-|


Verse 1                                                              4x
||--------------------------------|----------------------------------||
||o-------------------------------|---------------------------------o||
||--------------------------------|----------------------------------||
||-----------------5--------------|-5--------------7-------9-7-7-7---||
||o------------------3-3-3--3-3-3-|---3-3-3--3-3-3---5-5-5----------o||
||--0-0-0-0--0-0-0----------------|----------------------------------||


|----------------------|----------------------|
|----------------------|----------------------|
|----------------------|----------------------|
|----------------------|----------------------|
|------------------2---|--------------5-------|
|-5-5-5-5--3-5-3-5---7-|-7-7-7-7--5-7---7-5-3-|


Verse 2                                                              4x
||--------------------------------|----------------------------------||
||o-------------------------------|---------------------------------o||
||--------------------------------|----------------------------------||
||-----------------5--------------|-5--------------7-------9-7-7-7---||
||o------------------3-3-3--3-3-3-|---3-3-3--3-3-3---5-5-5----------o||
||--0-0-0-0--0-0-0----------------|----------------------------------||


||-----------------------|-----------------------||
||o----------------------|----------------------o||
||-----------------------|-----------------------||
||-----------------------|-----------------------||
||o------------------2---|--------------5-------o||
||--5-5-5-5--3-5-3-5---7-|-7-7-7-7--5-7---7-5-3--||

Chorus 1
||----------------------------------|--------------------------------------|
||o---------------------------------|--------------------------------------|
||----------------------------------|--------------------------------------|
||--7-7-9-9---------------------7-7-|-9-9-5-5-7-7-----12-12-------7-7-9-9--|
||o---------7-7-7-7-7-7-7-7-7-7-----|-------------7-7-------10-10----------|
||----------------------------------|--------------------------------------|


                                                                          3x
|---------------------------------|----------------------------------------|
|---------------------------------|---------------------------------------o|
|---------------------------------|----------------------------------------|
|-5-5-4-4---------------------9-9-|----------------------------------------|
|---------5-5-5-5-5-5-5-5-5-5-----|-10-10-9-9-----------6-6-7-7-9-9-10-10-o|
|---------------------------------|-----------10-10-8-8--------------------|


|------------------------------------|
|------------------------------------|
|------------------------------------|
|-7-7-9-9------------------------7-7-|
|---------7-7---7-7-7-7--7-7-7-7-----|
|------------------------------------|
|
| Gtr III
|-7---5-------/10--------8---7-------|
|-8---7---7---/12-------10---8---8---|
|---------7--------------------------|
|------------------------------------|
|------------------------------------|
|------------------------------------|


|-------------------------------------------|
|-------------------------------------------|
|-------------------------------------------|
|--9--9--5-5--7-7------12-12-------7-7--9-9-|
|------------------7-7-------10-10----------|
|-------------------------------------------|
|
|-------10---12-----------------------------|
|-(8)---10S==12---10----------8----7---10---|
|-------------------------------------------|
|-------------------------------------------|
|-------------------------------------------|
|-------------------------------------------|


|---------------------------------|---------------------------------------|
|---------------------------------|---------------------------------------|
|---------------------------------|---------------------------------------|
|-5-5-4-4---------------------9-9-|---------------------------------------|
|---------5-5-5-5-5-5-5-5-5-5-----|-10-10-9-9-----------6-6-7-7-9-9-10-10-|
|---------------------------------|-----------10-10-8-8-------------------|
|
|         ~
|---------------------------------|---------------------------------------|
|-8---7---------------------------|---------------------------------------|
|---------7-----------------------|---------------------------------------|
|---------9-----------------------|---------------------------------------|
|---------------------------------|---------------------------------------|
|---------------------------------|---------------------------------------|


|----------------------|----------------------|
|----------------------|----------------------|
|----------------------|----------------------|
|----------------------|----------------------|
|------------------2---|--------------5-------|
|-5-5-5-5--3-5-3-5---7-|-7-7-7-7--5-7---7-5-3-|


Verse 3                                                              4x
||--------------------------------|----------------------------------||
||o-------------------------------|---------------------------------o||
||--------------------------------|----------------------------------||
||-----------------5--------------|-5--------------7-------9-7-7-7---||
||o------------------3-3-3--3-3-3-|---3-3-3--3-3-3---5-5-5----------o||
||--0-0-0-0--0-0-0----------------|----------------------------------||


||-----------------------|-----------------------||
||o----------------------|----------------------o||
||-----------------------|-----------------------||
||-----------------------|-----------------------||
||o------------------2---|--------------5-------o||
||--5-5-5-5--3-5-3-5---7-|-7-7-7-7--5-7---7-5-3--||

Chorus 2
||----------------------------------|--------------------------------------|
||o---------------------------------|--------------------------------------|
||----------------------------------|--------------------------------------|
||--7-7-9-9---------------------7-7-|-9-9-5-5-7-7-----12-12-------7-7-9-9--|
||o---------7-7-7-7-7-7-7-7-7-7-----|-------------7-7-------10-10----------|
||----------------------------------|--------------------------------------|


                                                                                               3x
|---------------------------------|-----------------------------------------|
|---------------------------------|-----------------------------------------|
|---------------------------------|-----------------------------------------|
|-5-5-4-4---------------------9-9-|-----------------------------------------|
|---------5-5-5-5-5-5-5-5-5-5-----|-10-10-9-9-----------6-6-7-7-9-9-10-10---|
|---------------------------------|-----------10-10-8-8---------------------|


|------------------------------------|
|------------------------------------|
|------------------------------------|
|-7-7-9-9------------------------7-7-|
|---------7-7---7-7-7-7--7-7-7-7-----|
|------------------------------------|
|
|-7---5-------/10--------8---7-------|
|-8---7---7---/12-------10---8---8---|
|---------7--------------------------|
|------------------------------------|
|------------------------------------|
|------------------------------------|


|-------------------------------------------|
|-------------------------------------------|
|-------------------------------------------|
|--9--9--5-5--7-7------12-12-------7-7--9-9-|
|------------------7-7-------10-10----------|
|-------------------------------------------|
|
|-------10---12-----------------------------|
|-(8)---10S==12---10----------8----7---10---|
|-------------------------------------------|
|-------------------------------------------|
|-------------------------------------------|
|-------------------------------------------|


|---------------------------------|------------------------------------------|
|---------------------------------|------------------------------------------|
|---------------------------------|------------------------------------------|
|-5-5-4-4---------------------9-9-|------------------------------------------|
|---------5-5-5-5-5-5-5-5-5-5-----|-10-10-9-9-----------6-6-7-7-9-9-10-10----|
|---------------------------------|-----------10-10-8-8----------------------|

|---------------------------------|-----------------------------------------|
|-8---7---------------------------|-----------------------------------------|
|---------7-----------------------|-----------------------------------------|
|---------9-----------------------|-----------------------------------------|
|---------------------------------|-----------------------------------------|
|---------------------------------|-----------------------------------------|

Interlude
||--------------------------------------------------|
||o-------------------------------------------------|
||--12-12-------------12-12-------------11-11-------|
||--------12-12-14-14-------12-12-14-14-------12-12-|
||o-------------------------------------------------|
||--------------------------------------------------|


                                                    6x
|---------------------------------------------------||
|--------------------------------------------------o||
|-12-12-------------16-16-------14-14---------------||
|-------12-12-14-14-------12-12-------------12-12---||
|-------------------------------------14-14--------o||
|---------------------------------------------------||

End (Verse 4)                                                       4x
||--------------------------------|---------------------------------||
||o-------------------------------|--------------------------------o||
||--------------------------------|---------------------------------||
||-----------------5--------------|-5--------------7-------9-7-7-7--||
||o------------------3-3-3--3-3-3-|---3-3-3--3-3-3---5-5-5---------o||
||--0-0-0-0--0-0-0----------------|---------------------------------||
Добавлено: 05.07.2013
Другие материалы по этой песне:
  • Аккорды и текст

Страница создана 05.07.2013
http://primanota.ru/cky/and-she-never-returned-chords.htm
Привет, Гость.
Предлагаем пройти революционный курс по гитаре.
Подарок от PrimaNota.Ru, забирай!