PrimaNota.ru - самый крупный в мире бесплатный архив песенных текстов, аккордов, табулатур и нот


Cky - A1 Roller Rager - таба, видео

Регистрация Запомнить меня
Войти через:  Facebook Google Twitter Vk Yandex Mail.ru

Cky - A1 Roller Rager - таба, видео

Печатать
Просмотров: 111
[A#1 Roller Rager]
[Carver City]
[CKY]

Tuning: DGCFAD (C Standard/1 Step Down)
joshuaoliveira@hotmail.com

[Riff 1, Guitar 1 & 2] - [00:00] - [00:16]--------------------------| 4x
- ------------------------------------------------------------------|
- ------------------------------------------------------------------|
- ------------------------------------------------------------------|
- -------------------------------------6-6-----6-6-----9-9-6-6-8-8--|
- -9-9-----9-9---------9-9-----6-6-9-9-----7-7-----7-7--------------|
- -----7-7-----7-7-7-7-----7-7--------------------------------------|
PM ...............................................................
-
- -----------------------------------------------------------------|
- -----------------------------------------------------------------|
- -----------------------------------------------------------------|
- -------------------------------------6-6-----6-6-----------------|
- -9-9-----9-9---------9-9-----6-6-9-9-----7-7-----7-7-6-6---------|
- -----7-7-----7-7-7-7-----7-7-----------------------------7-7-9-9-|
PM ...............................................................


- -------------|
- -------------|
- -8-8-----6-6-| Additional harmony part for last 6 six notes of Riff 1.
- -----9-9-----| Cuz we all kno how deron Rapess octave pedals.. hahah
- -------------|
- -------------|
PM ...........

----------------------------------------------------------------------------

[Riff 2, Guitar 1 & 2] - [00:16] - [00:48]----------------------------| 4x
- ----------------------------------------------------------------- 1-|
- --------------------------------------------------------------------|
- --------------------------------------------------------------------|
- -------------9-9-----------------------------6-6--------------------|
- -----------------9-9-----9-9---------------------6-6-----6-6--------|
- -7-7-7-7-7-7---------7-7-----7-7-4-4-4-4-4-4---------4-4-----4-4----|
PM ...............................................................
-
- -----------------------------------------------------------------|
- -----------------------------------------------------------------|
- -----------------------------------------------------------------|
- -------------9-9-----------------------------6-6-----------------|
- -----------------9-9-----9-9---------------------6-6-----6-6-----|
- -7-7-7-7-7-7---------7-7-----7-7-4-4-4-4-4-4---------4-4-----4-4-|
PM ...............................................................


- -----------------------------------------------------------------| 2
- -----------------------------------------------------------------|
- -----------------------------4-4-------------4-4-----6-6-----8-8-|
- -----4-4---------4-4-------4---------4-4-6-6---------------------|
- ---------4-4-6-6-----4-4-6-------7-7-----------------------------|
- -2-2---------------------------------------------0-0-----0-0-----|
PM ...............................................................
-
- -----------------------------------------------------------------|
- -----------------------------------------------------------------|
- -----------------------------------------------------------------|
- -----4-4-----------------------------------------6-6-------------|
- ---------4-4-6-6-----4-4-----2-2---------------------7-7-----9-9-|
- -2-2-------------2-2-----2-2-----0-0-6-6-7-7-9-9---------7-7-----|
PM ...............................................     .......


- -------------------|
- -9-9---------------|
- -----9-9-----11-11-| Additional harmoney part for last 8 notes of Riff 2.
- ---------9-9-------| Again.. more octave pedal :P
- -------------------|
- -------------------|
PM     .......

----------------------------------------------------------------------------

[Riff 3, Guitar 1, 2 & 3] - [00:48] - [00:54]
- -------------------------------------------------| 1
- -------------------------------------------------|
- -------------------------------------------------|
- -------------------------------------------------|
- -------------6-6-6-6-6-6-------------6-6-----4-4-|
- -7-7-7-7---------------------7-7-7-7-----7-7-----|
PM ...............................................
-
- -------------------------------------------------|
- -------------7-7-7-7-7-7-------------7-7-----5-5-|
- -8-8-8-8---------------------8-8-8-8-----6-6-----|
- -------------------------------------------------|
- -------------------------------------------------|
- -------------------------------------------------|
PM ...............................................
-
- -------------------------------------------------|
- -------------------------------------------------|
- -------------8-8-8-8-8-8-------------8-8-----6-6-|
- -9-9-9-9---------------------9-9-9-9-----9-9-----|
- -------------------------------------------------|
- -------------------------------------------------|
PM ...............................................

- -------------------------------------------------| 2
- -------------------------------------------------|
- -------------------------------------------------|
- -------------------------------------------------|
- -------------4-4-4-4-4-4-------------4-4-----4-4-|
- -4-4-4-4---------------------4-4-4-4-----2-2-----|
PM ...............................................
-
- -------------------------------------------------|
- -------------7-7-7-7-7-7-------------7-7-----7-7-|
- -8-8-8-8---------------------8-8-8-8-----6-6-----|
- -------------------------------------------------|
- -------------------------------------------------|
- -------------------------------------------------|
PM ...............................................
-
- -------------------------------------------------|
- -------------------------------------------------|
- -------------6-6-6-6-6-6-------------6-6-----6-6-|
- -6-6-6-6---------------------6-6-6-6-----4-4-----|
- -------------------------------------------------|
- -------------------------------------------------|
PM ...............................................

----------------------------------------------------------------------------

[Riff 4, Guitar 1 & 2] - [00:54] - [01:16]----------------------------| 3x
- ----------------------------------------------------------------- 1-|
- --------------------------------------------------------------------|
- --------------------------------------------------------------------|
- --------------------------------------------------------------------|
- -------------2-2-2-2-2-2-----6-6-6-6-6-6-----2-2-2-2-6-6-2-2-4-4----|
- -0-0-0-0------------------------------------------------------------|
PM ...............................................................
-
- -----------------------------------------------------------------|
- -----------------------------7-7-7-7-7-7---------4-4-7-7-----5-5-|
- -------------4-4-4-4-4-4---------------------4-4---------6-6-----|
- -6-6-6-6---------------------------------------------------------|
- -----------------------------------------------------------------|
- -----------------------------------------------------------------|
PM ...............................................................


- -------------------------------------------------| 2
- -------------------------------------------------|
- -------------------------------------------------|
- -------------------------------------------------|
- -------------4-4-4-4-4-4-------------4-4-----4-4-|
- -4-4-4-4---------------------4-4-4-4-----2-2-----|
PM ...............................................
-
- -------------------------------------------------|
- -4-4-4-4-----7-7-7-7-7-7---------7-7-----4-4-----|
- -----------------------------4-4-----6-6-----4-4-|
- -------------------------------------------------|
- -------------------------------------------------|
- -------------------------------------------------|
PM ...............................................

----------------------------------------------------------------------------

[Riff 5] - [01:16] - [01:48]----------------------------------------| 4x
- ------------------------------------------------------------------|
- ------------------------------------------------------------------|
- ---------------6-6/8---------6---6/8---------------6p4-6-----6p4--|
- -----------9-------------9-----------6----------------------------|
- -9----------------------------------------------------------------|
- ---7-7-7-7---7-------7-7---7---7-------0-0-0-0-0-0-------0-0------|

- ---------|
- ---------|
- -6-4-3-4-| The first time this riff is played, open with a 6/8.
- ---------|
- ---------|
- ---------|

[Riff 6] - [01:32] - [01:48]----------------------------------------------| 2x
- ------------------------------------------------------------------------|
- ------------------------------------------------------------------------|
- ------------------------------------------------------------------------|
- ---------------8-8/9---------8---8/9------------------------------------|
- -9---------9-------------9-----------7----------------------------------|
- ---7-7-7-7---7-------7-7---7---7-------0-0-0-0-0-0-9p7h9---9p7h9-7-6-7--|

----------------------------------------------------------------------------

[Riff 1] - [01:48] - [01:56]----| 2x
[Riff 2] - [01:56] - [02:28]----| 4x
[Riff 3] - [02:28] - [02:43]
[Riff 4] - [02:43] - [02:56]----| 3x
[Riff 5] - [02:56] - [03:44]----| 6x
[Riff 6] - [03:12] - [03:44]----| 4x

----------------------------------------------------------------------------

[Riff 6, Guitar 1 & 2] - [03:44] - [03:51]
- -------------------------------------------------|
- -------------------------------------------------|
- -------------------------------------------------|
- -11~---------------------------------------------|
- -9~----------------------------------------------|
- -------------------------------------------------|
-
- -------------------------------------------------|
- -------------------------------------------------|
- -------------------------------------------------|
- -------------------------------------------------|
- -9~----------------------------------------------|
- -7~----------------------------------------------|

----------------------------------------------------------------------------

[Symbols]
/     Slide Up
p     Pull Off
h     Hammer On
PM... Palm Mute notes with (...) under them
~     Ler Ring

:D
Добавлено: 27.06.2013
Другие материалы по этой песне:
  • Аккорды и текст

Страница создана 27.06.2013
http://primanota.ru/cky/a1-roller-rager-chords.htm
Привет, Гость.
Предлагаем пройти революционный курс по гитаре.
Подарок от PrimaNota.Ru, забирай!