PrimaNota.ru - самый крупный в мире бесплатный архив песенных текстов, аккордов, табулатур и нот


Cky - 96 quiet bitter beginings - бас-таба, видео

Регистрация Запомнить меня
Войти через:  Facebook Google Twitter Vk Yandex Mail.ru

Cky - 96 quiet bitter beginings - бас-таба, видео

Печатать
Просмотров: 82


You may have heard this on mtv's Jackass

Intro
G--------------------------------------------------------
D--------------------------------2------------------------
A------2----------2-3-2--------3----/5--3---2-0----/2------
E--0-3---0---0-3--------3-2-0-------------------3------3----

verse
G----------------------------------------------------------------
D----------------------------------------------------------------
A----------4-4-4-----------------55555555------------------------
E--0-0-0--0--------------00000000--------------------------------

Breakdown
G---------------------------------------------------
D--------5----------------5---------------------------
A--5-5-5---5-7-7-7--3-3-3---5-7-7-7------------------
E---------------------------------------------------
 If you have any 's about this tab please email me at devilsteritory02@aol.com

Добавлено: 07.12.2013
Другие материалы по этой песне:
  • Аккорды и текст

Страница создана 07.12.2013
http://primanota.ru/cky/96-quiet-bitter-beginings-chords.htm
Привет, Гость.
Предлагаем пройти революционный курс по гитаре.
Подарок от PrimaNota.Ru, забирай!