PrimaNota.ru - самый крупный в мире бесплатный архив песенных текстов, аккордов, табулатур и нот


Cky - 12 Days Of Christmas - таба, видео

Регистрация Запомнить меня
Войти через:  Facebook Google Twitter Vk Yandex Mail.ru

Cky - 12 Days Of Christmas - таба, видео

Печатать
Просмотров: 126
12 Days Of Christmas by CKY
Tuning : Tuned Down 1 step DGCFAD (D3 G3 C4 F4 A4 D5)
Tabbed By Steve Mc
Email: CKYSteveh6190@aol.com

T= Tremolo Picking

 Intro/Riff A : "A god damn son of a bitch.."

D|---------------------------------|
A|---------------------------------|
F|---------------------------------|
C|---------------------------------|
G|-----5-6--8-6-5------------------|
D|---8------------6-8-6------------|

 Riff B: "On The # Day Of Christmas MY True Love Gave To Me"

D|---------------------------------|
A|---------------------------------|
F|---------------------------------|
C|---------------------------------|
G|--------------------5-6---5------|
D|1-1-1--6-6-6--5-6-8-----8--------|


 Riff C: all the days except for the 5th


D|-------------------|
A|-------------------|
F|-------------------|
C|-------------------|
G|-8----5-6----------|
D|---8------8--------|


 Riff D: "Five Gotta Schmeets!"


D|-------------------|
A|-------------------|
F|-------------------|
C|-------------------|
G|-8--10--7-8--------|
D|-------------------|

 Riff E1: Tremolo picking part after "five gotta schmeets"

D|----------------------------------|
A|----------------------------------|
F|----------------------------------|
C|----------------------------------|
G|--8-6-5---6-----------------------|
D|--------6---3-6-8-5-3-1-----------|
    T T T T T T T T T T T

 Riff E2: Tremolo Picking "a god damn son of a bitch"

D|------------------------|
A|------------------------|
F|------------------------|
C|------------------------|
G|----5-6--8--6-5---------|
D|--8-------------6--8--6-|
    T T T  T  T T T  T  T

 Outro Riff:

D|------------------------|
A|------------------------|
F|------------------------|
C|------------------------|
G|----5-6--8--6-5---------|
D|--8-------------6--8--6-|
                        T

order

1st day  : Riff A

2nd Day  : Riff B, Riff C, Riff A

3rd Day  : Riff B, Riff C 2x, Riff A

4th Day  : Riff B, Riff C 3x, Riff A

5th Day  : Riff B, Riff D, Riff ? 4x

6th Day  : Riff B, Riff C, Riff D, Riff E1, Riff E2

7th Day  : Riff B, Riff C 2x, Riff D, Riff E1, Riff E2

8th Day  : Riff B, Riff C 3x, Riff D, Riff E1, Riff E2

9th Day  : Riff B, Riff C 4x, Riff D, Riff E1, Riff E2

10th Day : Riff B, Riff C 5x, Riff D, Riff E1, Riff E2

11th Day : Riff B, Riff C 6x, Riff D, Riff E1, Riff E2

12th Day : Riff B, Riff C 7x, Riff D, Riff E1, Outro Riff

i can assure you this tab it 100% correct.

Добавлено: 26.09.2013
Другие материалы по этой песне:
  • Аккорды и текст

Страница создана 26.09.2013
http://primanota.ru/cky/12-days-of-christmas-chords.htm
Привет, Гость.
Предлагаем пройти революционный курс по гитаре.
Подарок от PrimaNota.Ru, забирай!