PrimaNota.ru - самый крупный в мире бесплатный архив песенных текстов, аккордов, табулатур и нот


Cj Ramone - What We Gonna Do Now - бас-таба, видео

Регистрация Запомнить меня
Войти через:  Facebook Google Twitter Vk Yandex Mail.ru

Cj Ramone - What We Gonna Do Now - бас-таба, видео

Печатать
Просмотров: 71
Уроки эстрадного вокала в Санкт-Петербурге
Intro                           x2
G---------------------------------|
D---------------------------------|
A---------------------------------|
E-3-3-3-3-3-3-3-3-3-3-3-3-3-3-3-3-|
 

Verse                           x2            
G---------------------------------|-------------------------|
D---------------------------------|-------------------------|
A---------------------------------|-7---5---3---7---5---3---|
E-3-3-3-3-3-3-3-3-3-3-3-3-3-3-3-3-|-------------------------|

                                x2            
G---------------------------------|-------------------------|
D---------------------------------|-------------------------|
A---------------------------------|-7---5---3---7---5---3---|
E-3-3-3-3-3-3-3-3-3-3-3-3-3-3-3-3-|-------------------------|


Chorus
G-----------------------------------|-------------------------------------------------|
D-----------------------------------|-------------------------------------------------|
A-2-2-2-2-3-3-3-3-----------5-------|-2-2-2-2-3-3-3-3-----------------5-5-5-5-5-5-5-5-|
E-----------------3-3-3-3-------3---|-----------------3-3-3-3-3-3-3-3-----------------|


Verse 2                        x2            
G---------------------------------|-------------|
D---------------------------------|-------------|
A---------------------------------|-7---5---3---|
E-3-3-3-3-3-3-3-3-3-3-3-3-3-3-3-3-|-------------|

                                x2            
G---------------------------------|-------------------------|
D---------------------------------|-------------------------|
A---------------------------------|-7---5---3---7---5---3---|
E-3-3-3-3-3-3-3-3-3-3-3-3-3-3-3-3-|-------------------------|


Chorus
G-----------------------------------|-------------------------------------------------|
D-----------------------------------|-------------------------------------------------|
A-2-2-2-2-3-3-3-3-----------5-------|-2-2-2-2-3-3-3-3-----------------5-5-5-5-5-5-5-5-|
E-----------------3-3-3-3-------3---|-----------------3-3-3-3-3-3-3-3-----------------|


Solo                            x2            
G---------------------------------|-------------------------|
D---------------------------------|-------------------------|
A---------------------------------|-7---5---3---7---5---3---|
E-3-3-3-3-3-3-3-3-3-3-3-3-3-3-3-3-|-------------------------|


Last Verse                      x2                        x3
G---------------------------------|-------------------------|---------------------|---|
D---------------------------------|-------------------------|---------------------|---|
A---------------------------------|-7---5---3---7---5---3---|-7-7-7-5-5-5-3-------|-2-|
E-3-3-3-3-3-3-3-3-3-3-3-3-3-3-3-3-|-------------------------|---------------------|---|
Добавлено: 05.07.2015
Вам также может быть интересно:
Другие материалы по этой песне:
  • Аккорды и текст

Страница создана 05.07.2015
http://primanota.ru/cj-ramone/what-we-gonna-do-now-chords.htm
Привет, Гость.
Предлагаем пройти революционный курс по гитаре.
Подарок от PrimaNota.Ru, забирай!