PrimaNota.ru - самый крупный в мире бесплатный архив песенных текстов, аккордов, табулатур и нот


Cj Ramone - Three Angels - бас-таба, видео

Регистрация Запомнить меня
Войти через:  Facebook Google Twitter Vk Yandex Mail.ru

Cj Ramone - Three Angels - бас-таба, видео

Печатать
Просмотров: 62
Intro
G---------|
D---------|
A---------|
E-3-------|


Chorus                                              x2
G-----------------------------------------------------|
D-----------------------------------------------------|
A-----------------3-3-3-3-3-3-3-5-5-5-5-3-3-3-3---3---|
E-3-3-3-3-3-3-3-3-------------------------------3---3-|


Verse                                                         x2 
G---------------------------------------------------------------|
D---------------------------------------------------------------|
A-----------------3-3-3-3-3-3-3-5-5-5-5-3-3-3-3-----------------|
E-3-3-3-3-3-3-3-3-------------------------------3-3-3-3-3-3-3-3-|


PreChorus
G-------------------------------------|-----------------------|
D-------------------------------------|-----------------------|
A-4/5-5-5-5-5-5-5-5-4/5-5-5-5-5-5-5-5-|-3-3-3-3-3-3-3-3---3---|
E-------------------------------------|-----------------3---3-|


G-------------------------------------|---------------------------------|
D-------------------------------------|---------------------------------|
A-4/5-5-5-5-5-5-5-5-4/5-5-5-5-5-5-5-5-|-3-3-3-3-3-3-3-3-5-5-5-5-5-5-5-5-|
E-------------------------------------|---------------------------------|


Chorus                                              x3 (third without vocals)
G-----------------------------------------------------|
D-----------------------------------------------------|
A-----------------3-3-3-3-3-3-3-5-5-5-5-3-3-3-3---3---|
E-3-3-3-3-3-3-3-3-------------------------------3---3-|


Verse                                                         x2 
G---------------------------------------------------------------|
D---------------------------------------------------------------|
A-----------------3-3-3-3-3-3-3-5-5-5-5-3-3-3-3-----------------|
E-3-3-3-3-3-3-3-3-------------------------------3-3-3-3-3-3-3-3-|


PreChorus
G-------------------------------------|-----------------------|
D-------------------------------------|-----------------------|
A-4/5-5-5-5-5-5-5-5-4/5-5-5-5-5-5-5-5-|-3-3-3-3-3-3-3-3---3---|
E-------------------------------------|-----------------3---3-|


G-------------------------------------|---------------------------------|
D-------------------------------------|---------------------------------|
A-4/5-5-5-5-5-5-5-5-4/5-5-5-5-5-5-5-5-|-3-3-3-3-3-3-3-3-5-5-5-5-5-5-5-5-|
E-------------------------------------|---------------------------------|


Chorus                                              x2
G-----------------------------------------------------|-----------------------|
D-----------------------------------------------------|-----------------------|
A-----------------3-3-3-3-3-3-3-5-5-5-5-3-3-3-3---3---|-5-5-5-5-3-3-3-3---3---|
E-3-3-3-3-3-3-3-3-------------------------------3---3-|----------------3----3-|


Solo                                                x2
G-----------------------------------------------------|
D-----------------------------------------------------|
A-----------------3-3-3-3-3-3-3-5-5-5-5-3-3-3-3---3---|
E-3-3-3-3-3-3-3-3-------------------------------3---3-|


Verse                                                         x2 
G---------------------------------------------------------------|
D---------------------------------------------------------------|
A-----------------3-3-3-3-3-3-3-5-5-5-5-3-3-3-3-----------------|
E-3-3-3-3-3-3-3-3-------------------------------3-3-3-3-3-3-3-3-|


PreChorus
G-------------------------------------|-----------------------|
D-------------------------------------|-----------------------|
A-4/5-5-5-5-5-5-5-5-4/5-5-5-5-5-5-5-5-|-3-3-3-3-3-3-3-3---3---|
E-------------------------------------|-----------------3---3-|


G-------------------------------------|---------------------------------|
D-------------------------------------|---------------------------------|
A-4/5-5-5-5-5-5-5-5-4/5-5-5-5-5-5-5-5-|-3-3-3-3-3-3-3-3-5-5-5-5-5-5-5-5-|
E-------------------------------------|---------------------------------|


Chorus                                              x2                      x2
G-----------------------------------------------------|-----------------------|
D-----------------------------------------------------|-----------------------|
A-----------------3-3-3-3-3-3-3-5-5-5-5-3-3-3-3---3---|-5-5-5-5-3-3-3-3---3---|
E-3-3-3-3-3-3-3-3-------------------------------3---3-|----------------3----3-|
Добавлено: 05.07.2015
Вам также может быть интересно:
Другие материалы по этой песне:
  • Аккорды и текст

Страница создана 05.07.2015
http://primanota.ru/cj-ramone/three-angels-chords.htm
Привет, Гость.
Предлагаем пройти революционный курс по гитаре.
Подарок от PrimaNota.Ru, забирай!