PrimaNota.ru - самый крупный в мире бесплатный архив песенных текстов, аккордов, табулатур и нот


Cj Ramone - Now I Know - бас-таба, видео

Регистрация Запомнить меня
Войти через:  Facebook Google Twitter Vk Yandex Mail.ru

Cj Ramone - Now I Know - бас-таба, видео

Печатать
Просмотров: 49
Intro/Solo
G----------------------------------------------|
D----------------------------------------------|
A-7--7--6--6--4--4--2--2--0-0-0-0--2-2-2-2-2-2-|
E----------------------------------------------|


Verse                                                             x2
G---------------------------------|---------------------------------|-----------------|
D---------------------------------|---------------------------------|-----------------|
A-7-7-7-7-7-7-7-7-----------------|-----------------7-7-7-7-7-7-7-7-|-----------------|
E-----------------7-7-7-7-7-7-7-7-|-5-5-5-5-5-5-5-5-----------------|-7-7-7-7-7-7-7-7-|


Chorus            x3   ("cuz there ain't no...")
G-------------------|---------------------------------|
D-------------------|---------------------------------|
A-4-----------------|-2-2-2-2-2-2-2-2-2-2-2-2-2-2-2-2-|
E---------5---------|---------------------------------|



Chorus            x3  (This is the chorus played after the solo)   
G-------------------|---------------------------------|
D-------------------|---------------------------------|
A-4-4-4-4-----------|-2-2-2-2-0-0-0-0-----------------|
E---------5-5-5-5-5-|-----------------4-4-4-4-2-2-2-2-|



Listen for order
Добавлено: 05.07.2015
Другие материалы по этой песне:
  • Аккорды и текст

Страница создана 05.07.2015
http://primanota.ru/cj-ramone/now-i-know-chords.htm
Привет, Гость.
Предлагаем пройти революционный курс по гитаре.
Подарок от PrimaNota.Ru, забирай!